Song name
# A B C D E F G H I J K L M N O P Q R S T U V W X Y Z

August Burns Red - Marianas Trench tab

I've been searching for a tab for the intro of this song because it's so
awesome, and every tab I found didn't quite sound right. SO here's a guitar
tab for the clean guitar at the start of the song.
I'm 99.99% sure this is correct.


Guitar 1
e|-------5---------5---------5---------5---------------|
B|---6-----6---6-----6---6-----6---6-----6-------------|
G|-----7---------7---------7---------7-----------------|
D|-8---------8---------8---------8---------------------|
A|-----------------------------------------------------|
E|-----------------------------------------------------|

e|-------0---------0---------0---------8-5-------------|
B|---6-----6---6-----6---6-----6---5h6-----------------|
G|-----7---------7---------7---------------------------|
D|-0---------0---------0---------0---------------------|
A|-----------------------------------------------------|
E|-----------------------------------------------------|


Guitar 2 - Comes in after Guitar 1 part has been played twice.
e|-----------------------------------------------------|
B|-----------------------------------------------------|
G|--7777777777-1010101010-1414141414-1212121212--------| (On the 4th repeat, play 18 
D|-----------------------------------------------------|    instead of 12)
A|-----------------------------------------------------|
E|-----------------------------------------------------|

(Each note for Guitar 2 is picked 20 times. The note changes at the same
time as every 2ND note on the D string in Guitar 1s part.)

WHEN GUITAR 2 COMES IN, PLAY 4 TIMES.


************************************

| /   slide up
| \   slide down
| h   hammer-on
| p   pull-off
| ~   vibrato
| +   harmonic
| x   Mute note
| b   Bend
| pb  Pre-bend
| br  Bend release
| pbr Pre-bend release
| brb Bend release bend

************************************
Tap to rate this tab
 
# A B C D E F G H I J K L M N O P Q R S T U V W X Y Z