Song name
# A B C D E F G H I J K L M N O P Q R S T U V W X Y Z

August Burns Red - Leveler tab

-------------------------------------------------
	   Leveler - August Burns Red
-------------------------------------------------
Tabbed by: Kristyn Lee
Email: spot_the_village_loony_836@hotmail.com

Tuning: Drop C

Intro  0:02 - 0:18
D|------------------------------------------------------|
A|------------------------------------------------------|
F|-----------------------------------------------7------|
C|-------------------------------7-----------5-8---8----|
G|---0-5-7-8p5---0-5-7-8p5---7-8---8-0-5-7-8------------|
C|-------------0-----------0----------------------------|
               .           . 

D|----------------------------------------------------|
A|----------------------10p6----6h8p6-----------------|
F|-------7-10-7-------7---------------9---------------|
C|---5-8----------5-8-------------------8p7---5-------|
G|------------------------------------------8---7-----|
C|--------------0------------0------------------------|
                .            .

D|------------------------------------------------------|
A|------------------------------------------------------|
F|-----------------------------------------------7------|
C|-------------------------------7-----------5-8---8----|
G|---0-5-7-8p5---0-5-7-8p5---7-8---8-0-5-7-8------------|
C|-------------0-----------0----------------------------|
               .           . 

D|----------------------------------------------------|
A|----------------------10p6----6h8p6-----------------|
F|-------7-10-7-------7---------------9---------------|
C|---5-8----------5-8-------------------8p7---5-------|
G|------------------------------------------8---7-----|
C|--------------0------------0------------------------|
                .            .
D|--------------------------|
A|--------------------------|
F|--------------------------|
C|--------------------------|
G|---5h6p5-------8---4*-----|
C|---------8-7-5---0--------|
           . . .   .
--------------------------------------------------------------------------
0:18 - 0:40    play x2

D|------------------------------------------------|
A|------------------------------------------------|
F|------------------------------------------------|
C|-----------------------7------------------------|
G|------------5h6p5p0-h5-----5/7----5---7---------|
C|---000-000---------------0-5/7-0----8---10------|
     ... ...               .     .
D|------------------------------------------------|
A|------------------------------------------------|
F|---------------------------7------------10------|
C|-----------------------7/8---8-10108877---------|
G|------------5h6p5p0-h5--------------------------|
C|---0000-0-0-------------------------------------|
     .... . . 
D|------------------------------------------------|
A|------------------------------------------------|
F|------------------------------------------------|
C|-----------------------7------------------------|
G|------------5h6p5p0-h5-----5/7----5---7---------|
C|---000-000---------------0-5/7-0----8---10------|
     ... ...               .     .
D|------------------------------------------------|
A|------------------------------------------------|
F|------------------------------------------------|
C|----------------------7-------------------------|
G|-----------5h6p5p0-h5-----7----8-----0-0-0------|
C|---000-000--------------0---10---12--0-0-0------|
     ... ...              .            . . .
--------------------------------------------------------------------------
0:41 - 0:50
guitar 1
D|--------------------|
A|--------------------|
F|--------------------|x8
C|--------------------|
G|---5---7----8-------|
C|-----8---10---12----|

guitar 2
D|--------------------|   |-------------------------| 
A|--------------------|   |-------------------------|
F|--------------------|x4 |--------------9-12-10----|x4
C|--------------------|   |--12-15-10-14------------|
G|---5---7----8-------|   |-------------------------|
C|-----8---10---12----|   |-------------------------|

--------------------------------------------------------------------------
0:51 - 0:55
guitar 1
D|--------------------------|
A|--------------------------|
F|---10-14-9-12-12-15-14----|x4
C|--------------------------|
G|--------------------------|
C|--------------------------|
guitar 2 
D|--------------------------|
A|--------------------------|
F|---------------9-12-10----|x4
C|---12-15-10-14------------|
G|--------------------------|
C|--------------------------|

----------------------------------------------------------------------------
0:56 - 1:06
guitar 1
D|----------------------------------------------|
A|----------------------------------------------|
F|--------------------------------14------------|x4
C|---8----10----12------8----10------15---------|
G|-----10----12----13-----10----12-------000----|
C|--------------------0------------------000----|
                      .                  ...
guitar 2 
D|----------------------------------------------|
A|----------------------------------------------|
F|---------------------------------14-----------|x4
C|--12----14----15------12----14------15--------|
G|-----13----15----17------13----15------000----|
C|--------------------0------------------000----|
                      .                  ...
--------------------------------------------------------------------------
1:07
both guitars
D|-----------------------------------------------------------------|
A|-----------------------------------------------------------------|
F|-----------------------------------------------------------------|
C|-----------------------------------------------------------------|
G|---000-0000-00-00-000-0000-00-00-000-0000-00-00-000-0000-00-00---|
C|---000-0000-00-00-000-0000-00-00-000-0000-00-00-000-0000-00-00---|
     ... .... .. .. ... .... .. .. ... .... .. .. ... .... .. ..

1:12
guitar 1
D|------------------------------------------------------|
A|------------------------------------------------------|
F|------------------------------------------------------|
C|------------------------------------------------------|
G|---0-0-0-000----0-0-0-000----0-0-0-000----0-0-0-000---|
C|---0-0-0-000----0-0-0-000----0-0-0-000----0-0-0-000---|
     . . . ...    . . . ...    . . . ...    . . . ...
guitar 2
D|---------------------------------------------------------|
A|---------------------------------------------------------|
F|---------------------------------------------------------|
C|---------------------------------------------------------|
G|---0-0-0-000-0-0-0-0-000-0-0-0-0-000-0-0-0-0-000-0-0-0---|
C|---0-0-0-000-0-0-0-0-000-0-0-0-0-000-0-0-0-0-000-0-0-0---|
     . . . ... . . . . ... . . . . ... . . . . ... . . .

------------------------------------------------------------------------
1:18

guitar 1   x2
D|-----------------------------------------------------------------|
A|-----------------------------------------------------------------|
F|-----------------------------------------------------------------|
C|-----------------------------------------------------------------|
G|---000-0000-00-00-000-0000-00-00-000-0000-00-00-000-0000-00-00---|
C|---000-0000-00-00-000-0000-00-00-000-0000-00-00-000-0000-00-00---|
     ... .... .. .. ... .... .. .. ... .... .. .. ... .... .. ..
guitar 2
D|------------------------------------------|
A|-------------------------------10---------|
F|---222222223333333366666666777---7777-----|x4
C|---000000000000000000000000000---0000-----|
G|------------------------------------------|
C|------------------------------------------|

1:36
guitar 1
D|-------------------------|
A|-------------------------|
F|-------------------------|
C|-------------------------|
G|---0~~---pickscrape------|
C|---0~~-------------------|

1:42 both guitars  x2
D|------------------------------------------|
A|------------------------------------------|
F|------------------------------------------|
C|--------------------------------3---------|
G|---0-0-000-000-000-00-000-000-7---7p0-----|
C|---0-0-000-000-000-00-000-000-------------|

1:53
guitar 1  x2
D|-------------------------------------------|
A|-------------------------------------------|
F|-------------------------------------------|
C|--------------------------------3----------|
G|---0-0-000-000-000-00-000-000-7---7p0------|
C|---0-0-000-000-000-00-000-000--------------|

guitar 2   x2

    x16   x8   x8    x16    x8   x8
D|-------------------------------------------|
A|-------------------------------------------|
F|---10---9----12----10-----9----6-----------|
C|---0----0----0-----0------0----0-----------|
G|-------------------------------------------|
C|-------------------------------------------|

2:05
Repeat Intro x2

2:21
guitar 1
D|-----------------------------------------------|
A|-----------------------------------------------|
F|-----------------------------------------------|
C|-----------------------------------------------|
G|---0~~----8~----------0~~----8~----------------|
C|---0~~----8~---10-10--0~~----8~---10--10-------|
guitar 2
D|--------------------------------------------|
A|--------------------------------------------|
F|----------7~---10-9----------7~---14--12----|
C|----------x----x--x----------x----x---x-----|
G|---0~~----5~---8--7---0~~----5~---12--10----|
C|---0~~----------------0~~-------------------|

2:32
guitar 1  x4 
D|-----------------------------------------------|
A|-----------------------------------------------|
F|-----------------------------------------------|
C|-----------------------------------------------|
G|---0~~----8~----------0~~----8~----------------|
C|---0~~----8~---10-10--0~~----8~---10--10-------|
guitar 2  x4
D|------------------------------------------------------|
A|-------------------------13------10----------8--------|
F|------14---------------14--14---7---7------9---9------|
C|---12----15-14-12-14-12-------8-------8-10------10----|
G|------------------------------------------------------|
C|------------------------------------------------------|

2:54
guitar 1   x2
D|------------------------------------------------|
A|------------------------------------------------|
F|------------------------------------------------|
C|---------------------5577--------7-7-777555-----|
G|------0---0----------7788----5-5-8-8-888777-----|
C|---00-0-000-00000000-------88888-88888----------|
     ..   ..  ........       .. .   . .
guitar 2
D|---------------------------1010-1212-13------13------13------|
A|---------1010---------1010--------------15------15-----15----|
F|------99------99-1010----------------------14------14--------|
C|---77--------------------------------------------------------|
G|-------------------------------------------------------------|
C|-------------------------------------------------------------|

D|---17-15-13h15p13-12----12-15---|
A|---------------------15---------|
F|--------------------------------|
C|--------------------------------|
G|--------------------------------|
C|--------------------------------|


D|-----------------------1010-1212-----------------------------------12--|
A|-------1010--------1010---------1010-----1111-----------------10-13----|
F|-----99-----99-1010-----------------1212-----1010-1212-1010-12---------|
C|--77-------------------------------------------------------------------|
G|-----------------------------------------------------------------------|
C|-----------------------------------------------------------------------|

3:05
guitar 1   x2
     t   t   t   t   t   t  t    t  t  t  t   t  t   t
D|--------------------------------------------------------|
A|--------------------------------------------------------|
F|----------------------------------10-----------9---10---|
C|--------------------------12---7-----7------7-----------|
G|---0---5---8---5---8---12---------------10--------------|
C|--------------------------------------------------------|

D|---------------------------1010-1212-13------13------13------|
A|---------1010---------1010--------------15------15-----15----|
F|------99------99-1010----------------------14------14--------|
C|---77--------------------------------------------------------|
G|-------------------------------------------------------------|
C|-------------------------------------------------------------|

D|---17-15-13h15p13-12----12-15---|
A|---------------------15---------|
F|--------------------------------|
C|--------------------------------|
G|--------------------------------|
C|--------------------------------|

D|---------------------------1010-1212-----------------------------------|
A|---------1010---------1010-----------1010------1111---------------14---|
F|------99------99-1010---------------------1212------1010-12121212------|
C|---77------------------------------------------------------------------|
G|-----------------------------------------------------------------------|
C|-----------------------------------------------------------------------|


3:15   
"LEVELER, MAKE LEVELER ROAD FOR THE RIGHTEOUS..."
D|-------------------------------------------------|
A|-------------------------------------------------|
F|-------------------------------------------------|
C|-------------------------------------------------|
G|---0000-00000-000-000000-0000-00000000-000000----|
C|---0000-00000-000-000000-0000-00000000-000000----|
     .... ..... ... ...... .... ........ ......

Guitar 1 keep playing that for a while

3:32
D|-----------------------------|
A|---3~~-----------------------|
F|---2-~~----3~~-----5~~-------|
C|---0~~-----3~~-----5~~-------|
G|---0~~-----1~~-----3~~-------|
C|---0~~-----------------------|

3:44
D|------------------------------------------------------|
A|-------------------------13------10----------8--------|
F|------14---------------14--14---7---7------9---9------|
C|---12----15-14-12-14-12-------8-------8-10------10----|
G|------------------------------------------------------|
C|------------------------------------------------------|

3:55  
guitar 1
D|-------------------------------------------|
A|-------------------------------------------|
F|-------------------------------------------|
C|--------------------33333333-55555555------|
G|---0000000000000000-11111111-33333333------|
C|---0000000000000000------------------------|
guitar 2
     x24         x8          x24        x8
D|----------------------------------------------|
A|----------------------------------------------|
F|---10----------9-----------10---------12------|
C|----------------------------------------------|
G|----------------------------------------------|
C|----------------------------------------------|

The End

************************************

| .   palm mute
| *   pinch harmonic
| /   slide up
| \   slide down
| h   hammer-on
| p   pull-off
| ~   vibrato
| +   harmonic
| x   Mute note
| b   Bend
| pb  Pre-bend
| br  Bend release
| pbr Pre-bend release
| brb Bend release bend

************************************
Tap to rate this tab
# A B C D E F G H I J K L M N O P Q R S T U V W X Y Z