Song name
# A B C D E F G H I J K L M N O P Q R S T U V W X Y Z

August Burns Red - Marianas Trench tab

-----------------------------------------------------------------------------
                    August Burns Red - Marianas Treanch
-----------------------------------------------------------------------------
Tabbed by:Metalcoreking
Email:Matthessell@live.com

Tuning:CGCFAD

INTRO
D|-------5----------5----------5----------5---------------------------------|
A|---6-----6----6-----6----6-----6----6-----6-------------------------------|
F|-----7----------7----------7----------7-----------------------------------|
C|-8----------8----------8----------8---------------------------------------|
G|--------------------------------------------------------------------------|
C|--------------------------------------------------------------------------|
 |                                                                          |
D|-------0----------0----------0----------8p5---------------------------(x2)|
A|---6-----6----6-----6----6-----6----5h6-----------------------------------|
F|-----7----------7----------7----------------------------------------------|
C|-0----------0----------0----------0---------------------------------------|
G|--------------------------------------------------------------------------|
C|--------------------------------------------------------------------------|

TREMELO
D|----------------------------------------------------------------------(x3)|
A|--------------------------------------------------------------------------|
F|----------10(x20)--/14(x20)--12(x20)--------------------------------------|
C|-12(x20)------------------------------------------------------------------|
G|--------------------------------------------------------------------------|
C|--------------------------------------------------------------------------|
 |                                                                          |
D|--------------------------------------------------------------------------|
A|-----------------------------13(x20)--------------------------------------|
F|----------10(x20)--/14(x20)-----------------------------------------------|
C|-12(x20)------------------------------------------------------------------|
G|--------------------------------------------------------------------------|
C|--------------------------------------------------------------------------|

D|-------5----------5----------5----------5---------------------------------|
A|---6-----6----6-----6----6-----6----6-----6-------------------------------|
F|-----7----------7----------7----------7-----------------------------------|
C|-8----------8----------8----------8---------------------------------------|
G|--------------------------------------------------------------------------|
C|--------------------------------------------------------------------------|
 | x   x      x   x      x   x      x   x                                   |
D|-------0----------0----------0----------8p5--(x4)|------------------------|
A|---6-----6----6-----6----6-----6----5h6----------|-5h6-----6p5------------|
F|-----7----------7----------7---------------------|-----5h7-----7----------|
C|-0----------0----------0----------0--------------|---------------7--------|
G|-------------------------------------------------|------------------------|
C|-------------------------------------------------|------------------------|
   x   x      x   x      x   x      x                                    

VERSE
D|----------------------------------------------------------------------(x4)|
A|--------------------------------------------------------------------------|
F|---------------------------------------------7p6--------------------------|
C|---------------------------8p7h8p0---5h7p5p0-----7p0----------------------|
G|-5h8p5p0-------5p4h5p0----------------------------------------------------|
C|---------0-000---------000---------0--------------------------------------|
 |         x xxx         xxx         x                                      |
D|----------------------------------------------------------------------(x4)|
A|--------------------------------------------------------------------------|
F|--------------------------------------------------------------------------|
C|--------------------------------------------------------------------------|
G|-5h8p5p0-0-000--000--0-00--00000000---------------------------------------|
C|---------0-000--000--0-00--00000000---------------------------------------|
           x xxx  xxx  x xx  xxxxxxxx                                    
   
D|--------------------------------------------------------------------------|
A|--------------------------------------------------------------------------|
F|------------------------------------7-------------------------------------|
C|-------0------------------0-----------8----7---7--------------------------|
G|-8p7p0-0-0000000000-8p7p0-0-0000000-----10---8---7------------------------|
C|-------0-0000000000-------0-0000000---------------------------------------|
 |         xxxxxxxxxx         xxxxxxx                                       |
D|------------------------------|----(1st)|----(2nd)|-------------------(x2)|
A|------------------------------|---------|---------|-----------------------|
F|------------------------------|---------|---------|-----------------------|
C|-0------------------0---------|-3-3-4-1-|-8-8-4-6-|-----------------------|
G|-0-0000000000-8p7p0-0-0000000-|-1-1-4-1-|-8-8-4-6-|-----------------------|
C|-0-0000000000-------0-0000000-|-----4-1-|-8-8-4-6-|-----------------------|
     xxxxxxxxxx         xxxxxxx            

VERSE 2
D|----------------------------------------------------------------------(x2)|
A|--------------------------------------------------------------------------|
F|------------------------------------------------------10------------------|
C|-8--------10------8--------10h11p8-8--------10---11--------11---10--------|
G|-8---11--------11-8---11-----------8---11--------------------------11p8---|
C|-8-8----8----8----8-8----8---------8-8----8----8----8----8----8-----------|
 |   x    x    x      x    x           x    x    x    x    x    x           |
D|--------------------------------------------------------------------------|
A|-------------------6-------------------------------6----------------------|
F|-----------5---6-------6---5---------------5---6-------6---5--------------|
C|-4-----6-----4---4---4---4---6p4-4-----6-----4---4---4---4---6p4----------|
G|-4-------------------------------4----------------------------------------|
C|-4---4---4-----------------------4---4---4--------------------------------|
       x   x   x   x   x   x           x   x   x   x   x   x
D|----------------------------------------------------------------------(x2)|
A|--------------------------------------------------------------------------|
F|------------------------------------------------------10------------------|
C|-8--------10------8--------10h11p8-8--------10---11--------11---10--------|
G|-8---11--------11-8---11-----------8---11--------------------------11p8---|
C|-8-8----8----8----8-8----8---------8-8----8----8----8----8----8-----------|
 |   x    x    x      x    x           x    x    x    x    x    x           |
D|--------------------------------------------------------------------------|
A|--------------------------------------------------------------------------|
F|-------------------6-------------------------------6----------------------|
C|-4---------6---8-------8---6-----4---------6---8-------8---6--------------|
G|-4-----8---------------------8p4-4-----8---------------------8p4----------|
C|-4---4---4---4---4---4---4-------4---4---4---4---4---4---4----------------|
 |     x   x   x   x   x   x           x   x   x   x   x   x                |
D|--------------------------------------------------------------------------|
A|--------------------------------------------------------------------------|
F|---------------------------------------------------3---3---6\-------------|
C|-1-----3---3---1-----------------1-----3---4---1--------------------------|
G|-1-----------------4---4---4p1---1----------------------------------------|
C|-1---1---1---1---1---1---1-------1---1---1---1---1---1---1----------------|
       x   x   x   x   x   x           x   x   x   x   x   x

D|-----------------------------16-------------------------------------------|
A|--------------------------------------------------------------------------|
F|-10/13-13--13-13-13-13-13-13----13-13-12\-3---3---3-3-3-5---5---5-5-5-----|
C|-x--x--x---x--x--x--x--x--x-----x--x--x---x---x---x-x-x-x---x---x-x-x-----|
G|-8/-11-11--11-11-11-11-11-11----11-11-8\--1---1---1-1-1-3---3---3-3-3-----|
C|--------------------------------------------------------------------------|

SOLO
D|----------------13-16----16-------13-------13-----------------------------|
A|----------14h16-------14----13h14----13h14----13h14-15/--13---------------|
F|-15----15-----------------------------------------------------------------|
C|--------------------------------------------------------------------------|
G|--------------------------------------------------------------------------|
C|--------------------------------------------------------------------------|
 |                                                                          |
D|--------------------------------16-14-13----16-14-13-14-13----------------|
A|------------------9/14-13-14-16----------14----------------14-13----------|
F|------------10-11------------------------------------------------15-------|
C|------10-11---------------------------------------------------------------|
G|-8-11---------------------------------------------------------------------|
C|--------------------------------------------------------------------------|
 |                                                                          |
D|-------13-----16p14p13----------16p14p13----------16p14p13-16p14p13-------|
A|-14--------------------16p14p13----------16p14p13-------------------------|
F|----15----13--------------------------------------------------------------|
C|--------------------------------------------------------------------------|
G|--------------------------------------------------------------------------|
C|--------------------------------------------------------------------------|
 |                                                                          |
D|----------13h14h16/18-18-13h14p13-----------------------------------------|
A|-13h14h16-------------------------14-13h14p13-----------------------------|
F|----------------------------------------------15~-------------------------|
C|--------------------------------------------------------------------------|
G|--------------------------------------------------------------------------|
C|--------------------------------------------------------------------------|

BREAKDOWN
D|----------------------------------------------------------------------(x4)|
A|------------------------------4-----------------6---6---7p6p4-------------|
F|--------------------------5h6-----------5---6-----------------------------|
C|-8--------10------3---6---------4---6-------------------------------------|
G|-8---11--------11-3-------------4-----------------------------------------|
C|-8-8----8----8----3-3---3-------4-4---4---4---4---4---4-------------------|
 |   x    x    x      x   x         x   x   x   x   x   x                   |
D|----------------------------------------------------------------------(x4)|
A|--------------------------------------------------------------------------|
F|--------------------------------------------------------------------------|
C|-11---6----8----8------------11-------------------------------------------|
G|-8----3----4----4-(Strum)----8--------------------------------------------|
C|-8----3----4----4------------8--------------------------------------------|

OUTRO
D|--------------------------------------------------------------------------|
A|--------------------------------------------------------------------------|
F|--------------------------------------------------6h8p6-------------------|
C|----------------------------------------------6h8-------------------------|
G|------------------------------------------6h8-----------------------------|
C|-6h8-8-8-8-8-6h8-8-8-8-8-8----6h8-8-8-8-8---------------------------------|
 |     x x x x     x x x x x        x x x x                                 |     
D|----------------------------------------|-------(2nd)|----------------(x2)|
A|----------------------------------------|------------|--------------------|
F|----------------------------------------|------------|--------------------|
C|----------------------------------------|----6--6----|--------------------|
G|------------------------------44--44----|----4--6----|--------------------|
C|-6h8-8-8-8-8-6h8-8-8-8-8-8----44--44----|-------6----|--------------------|
       x x x x     x x x x x    xx  xx 

D|--------------------------------------------------------------------------|
A|------------------------------99------------------------------------------|
F|-----1010----1010-------1010----1010--1010--------------------------------|
C|-6688----6688----8--6688------------88------------------------------------|
G|--------------------------------------------------------------------------|
C|--------------------------------------------------------------------------|
 | xxxxxxxxxxxxxxxxx  xxxxxxxx  xxxxxxxxxxxx                                ||
D|----------------------------------------------------------------------(x2)|
A|--------------------------------------------------------------------------|
F|-----1010----1010-------1010--88101088------------------------------------|
C|-6688----6688----8--6688--------------1010--------------------------------|
G|--------------------------------------------------------------------------|
C|--------------------------------------------------------------------------|
   xxxxxxxxxxxxxxxxx  xxxxxxxx  xxxxxxxxxxxx
D|--------------------------------------------------------------------------|
A|--------------------------------------------------------------------------|
F|-----1010----1010----------1010------1010--1010---------------------------|
C|-6688----6688----6688--6688----88--66----66-------------------------------|
G|--------------------------------------------------------------------------|
C|--------------------------------------------------------------------------|
 | xxxxxxxxxxxxxxxxxxxx  xxxxxxxxxx  xxxxxxxxxxxx                           |
D|-----------------------------------9988-------------------------------(x2)|
A|---------------------------------------99---------------------------------|
F|-----1010----1010----------101088--------88-------------------------------|
C|-6688----6688----6688--6688-----------------------------------------------|
G|--------------------------------------------------------------------------|
C|--------------------------------------------------------------------------|
   xxxxxxxxxxxxxxxxxxxx  xxxxxxxxxx  xxxxxxxxx

************************************

| /   slide up
| \   slide down
| h   hammer-on
| p   pull-off
| ~   vibrato
| +   harmonic
| x   Mute note
| b   Bend
| pb  Pre-bend
| br  Bend release
| pbr Pre-bend release
| brb Bend release bend

************************************
Tap to rate this tab
 
# A B C D E F G H I J K L M N O P Q R S T U V W X Y Z