Song name
# A B C D E F G H I J K L M N O P Q R S T U V W X Y Z

August Burns Red - Composure tab

Solo/outro to "Composure" by August Burns Red:

Drop C Tuning.

This is the way I learned it. And I recommend it to people who play on acoustic guitars 
that have no cutout.



*Guitar 1*
D---------------------------------------------------|
A-----------13-10----------------------10-11-10-8---|
F---7/10-10-------10-9h10p9p7---7-7-10--------------|
C-----------------------------8---------------------|
G---------------------------------------------------|
C---------------------------------------------------|

*Guitar 2*
D------------12---------------------------------------------|
A---------------13----------------------------13-13-13-11---|
F---10/14-14-------14-12h14p12p10----10-10-14---------------|
C---------------------------------12------------------------|
G-----------------------------------------------------------|
C-----------------------------------------------------------|
Tap to rate this tab
# A B C D E F G H I J K L M N O P Q R S T U V W X Y Z