Song name
# A B C D E F G H I J K L M N O P Q R S T U V W X Y Z

August Burns Red - Balance tab

I just learned this solo today. But I could not find tabs showing where and when
to do "slides," Hammer-ons," or "Pull-offs." ...So this tab is to help you figure
that part out.

TP = Trail Pick





---------------------13/17--17-17--17/20--20-20\---|
-15-17p15-18p17p15---------------------------------|
---------------------------------------------------|
---------------------------------------------------|
---------------------------------------------------|
---------------------------------------------------|


----------------------------------|
---11-13p11-15p13p11--------------|
---------------------12-10\9------|
-----------------------------10---|
----------------------------------|
----------------------------------|

   TP  TP   TP  TP   TP   TP    TP
-----------------------------------------|
-----------------------------------------|
-------10---9---12--------12---10---15---|
---8-----------------10------------------|
-----------------------------------------|
-----------------------------------------|


------------------18-17----------15-17------------|
---------15-18-15-------18-17-18-------15-13-15---|
---14-17------------------------------------------|
--------------------------------------------------|
--------------------------------------------------|
--------------------------------------------------|
Tap to rate this tab
 
# A B C D E F G H I J K L M N O P Q R S T U V W X Y Z