Song name
# A B C D E F G H I J K L M N O P Q R S T U V W X Y Z

August Burns Red - Redemption tab

August Burns Red, "Redemption" Riff/solo Tab: 


I've been working on learning this song.
 And this might be the most complicated part to figure out. 
but hopefully this will help all of you who are taking the challenge. 
Good luck! Let me know if something sounds off to you.



G=I
---------------------------------|------------------------------------|
---------------------------------|------------------------------------|
---------------------------------|------------------------------------|
-0-0-3p0-3p0-0-5p0-0-3-3-2-2-3-3-|-0-0-5p0-5p0-0--7p0-0-8-8--7-7-5-5--|
---------------------------------|------------------------------------|
---------------------------------|------------------------------------|

G=II
---------------------------------|------------------------------------|
---------------------------------|------------------------------------|
---------------------------------|------------------------------------|
---------------------------------|-0-0-8p0-8p0-0-10p0-0-8p0-----------|
-0-0-5p0-5p0-0-7p0-0-5p0-3p0-5p0-|--------------------------10p0-8p0--|
---------------------------------|------------------------------------|




G=I
--------------------------------------------------|
--------------------------------------------------|
--7-7--9p7---9p7---7--10p7--7--9--9---7--7--9--9--|
--------------------------------------------------|
--------------------------------------------------|
--------------------------------------------------|
--------------------------------------------------|

G=II
--------------------------------------------------|
--------------------------------------------------|
--------------------------------------------------|
--------------------------------------------------|
--0-0--7p0---7p0---0--8p0---0--7--7---5--5--7--7--|
--------------------------------------------------|




G=I
-------------------------------------------------|
-------------------------------------------------|
--10-10-14p10-14p10-10-15p10-10-14p10-12p10-14p10|
-------------------------------------------------|
-------------------------------------------------|
-------------------------------------------------|

G=II
-------------------------------------------------|
-------------------------------------------------|
-------------------------------------------------|
--0--0--10p0--10p0---0--12p0--0-10p0---8p0-10p0--|
-------------------------------------------------|
-------------------------------------------------|
Tap to rate this tab
# A B C D E F G H I J K L M N O P Q R S T U V W X Y Z