Song name
# A B C D E F G H I J K L M N O P Q R S T U V W X Y Z

August Burns Red - We Wish You A Merry Christmas tab

Played in DROP C

~  - Let ring
s  - Slide to required note
h  - Hammer on
b* - Bend to required pith
*  - mute this note


Part I
D|--------------------------------------------------------------------------|
A|--------------------------------------------------------------------------|
F|-------------------------4------------4-4-5-4-----------------------------|
C|--0-5-5-7-5-4--------7-7---7-5-4-0--0---------7-5-----------7-4-5---------|
G|--------------7-7--7-------------------------------7--5-5-7---------------|
C|--------------------------------------------------------------------------|

Part II
D|--------------------------------------------------------------------------|
A|----------------------------------12-----------------12-12-11-12----------|
F|---12-12-14-12-11-----------14-14----14-12-11--------------------14-12----|
C|12----------------14-14--14-------------------12--12-------------------14-|
G|--------------------------------------------------------------------------|
C|--------------------------------------------------------------------------|

D|--------------------------------------------------------------------------|
A|--------------------------------------------------------------------------|
F|-----------14-11-12-------------------------------------------------------|
C|--12-12-14----------------------------------------------------------------|
G|--------------------------------------------------------------------------|
C|--------------------------------------------------------------------------|

        2x      short Interlude +
D|--------------------------------------------------------------------------|
A|-------12-10----15--------------------------------------------------------|
F|-14-14-------12-----------------14-11-12----------------------------------|
C|-------------------12--12-12-14-------------------------------------------|
G|--------------------------------------------------------------------------|
C|--------------------------------------------------------------------------|

Repeat Part I and Part II / at the end play this: 
D|--------------------------------------------------------------------------|
A|--------------------------------------------------------------------------|
F|--------------------------------------------------------------------------|
C|--0-----------------------------------------------------------------------|
G|--0-----------------------------------------------------------------------|
C|--0-0-0-0-0-0-0-0-0-0-0-0-0-0-0-0-0-0-0-0-0-0-0--(didn't-count)-----------|
      * * * * * * * * * * * * * * * * * * * * * *  

        longer Interlude
D|-------------------22------------22---------------------------------------|
A|20b1-20~~-17-20-17---20-17-20-17----20-17-20-17-17-15-15-13-13-12h13-12h13|
F|--------------------------------------------------------------------------|
C|--------------------------------------------------------------------------|
G|--------------------------------------------------------------------------|
C|--------------------------------------------------------------------------|

D|--------15-15s17-15-17-17b1-15-22b1-22b1-22~-20-19-17---------------------|
A|--12h13-----------------------------------------------20-19-20------------|
F|---------------------------------------------------------------19-17------|
C|--------------------------------------------------------------------------|
G|--------------------------------------------------------------------------|
C|--------------------------------------------------------------------------|

D|-----------------------------------------------------------22-19----------|
A|---------------------------------------17-19-20-19-20b1-20-------20----20-|
F|16h17-16----16----------------16-17-19------------------------------19----|
C|---------19----19-17-16h17-19---------------------------------------------|
G|--------------------------------------------------------------------------|
C|--------------------------------------------------------------------------|

D|--------------------------------------------------------------------------|
A|--19-20-19----------19-22b1-22b1-22b1-20-19-20~~~~~~~~~~~~~~~~~~~~~~------|
F|-----------21----21-------------------------------------------------------|
C|--------------21----------------------------------------------------------|
G|--------------------------------------------------------------------------|
C|--------------------------------------------------------------------------|

Repeat Part II twice and Part I once. FINISH

++++++++++++++++++++++++++++++++++++++++++++++++++++++++++++++++++++++++

Have fun playing it. Leave a comment if you find sth. wrong or if you have better 
ideas at some point.
You can leave a comment if you like it aswell :P
and MERRY CHRISTMAS to all of you out there ;)

regards
genocide90

++++++++++++++++++++++++++++++++++++++++++++++++++++++++++++++++++++++++++
Tap to rate this tab
# A B C D E F G H I J K L M N O P Q R S T U V W X Y Z