Song name
# A B C D E F G H I J K L M N O P Q R S T U V W X Y Z

August Burns Red - Dance Of The Sugar Plum Fairy tab

Title: Dance of the Sugar Plum Fairy
Artist: August Burns Red
Album: Sleddin' Hill
Tempo = 100

SubTitle: Tabbed by Daniel Yates

There may be a few little bits where the rhythm is slightly off but I'd say that the 
notes are pretty much 99% correct! Enjoy!

And check out my youtube channel!

http://www.youtube.com/user/TheDanielYates

JB Lead


Legend
L - tied note
x - dead note
h - hammer on/pull off
b - bend
s - slide
~ - vibrato
g - ghost note
> - accentuated note
t - trill
M - palm mute
. - staccato
P - popping (bass)
S - slapping (bass)
+ - tapping
W - wide vibrato
< - fade in
w - whammy bar
= - tremolo picking
v - brush up
^ - brush down
V - pick stroke up
n - pick stroke down


C#|----------------------------------------------------|
G#|----------------------------------------------------|
E |----------------------------------------------------|
B |--------5--5--------7--7--------8--8----------------|
F#|--------------------------------------------9--9----|
B |--5--5--------5--5--------5--5--------5--5----------|


----------------------------------------------------|
----------------------------------------------------|
----------------------------------------------------|
--------5--5--------7--7--------8--8----------------|
--------------------------------------------9--9----|
--5--5--------5--5--------5--5--------5--5----------|


----------------------------------------------------|
----------------------------------------------------|
----------------------------------------------------|
--------5--5--------7--7--------8--8----------------|
--------------------------------------------9--9----|
--5--5--------5--5--------5--5--------5--5----------|


----------------------------------------------------|
----------------------------------------------------|
--------------------------------------------8~------|
--------5--5--------7--7--------8--8----------------|
----------------------------------------------------|
--5--5--------5--5--------5--5--------5--5----------|


----------------------------------------------------|
--------11----11----10------------------------------|
-----------12-------------11----12----10-10-10------|
----------------------------------------------------|
----------------------------------------------------|
----------------------------------------------------|


--------------------------------------------------------------------------------|
--------------------------------------------------------8-----------8-----------|
--9-----9-----9-----------8-----8-----8-----------7-----------8-----------7-----|
--------------------------------------------------------------------------------|
--------------------------------------------------------------------------------|
--------------------------------------------------------------------------------|


--------------------|----------------------------------------------------|
------8--6----------|--------------------------------------11-11-11------|
------------8--7----|--6-----------------------8-----7-------------------|
--------------------|--------8-----8-----7-------------------------------|
--------------------|-----------10---------------------------------------|
--------------------|----------------------------------------------------|


--------------------------------------------------------------------------------|
--10----10----10----------------------------------------10----------10----------|
--------------------------12----12----12----------11----------12----------11----|
--------------------------------------------------------------------------------|
--------------------------------------------------------------------------------|
--------------------------------------------------------------------------------|


--------------------|----------------------------------------------------|
--------------------|--------11----11----10------------------------------|
--------------------|-----------12-------------11----12----10-10-10------|
------12-10---------|----------------------------------------------------|
------------13-12---|--10------------------------------------------------|
--------------------|----------------------------------------------------|


----------------------------------------------------|
-----------------------------8-----8----------------|
--9--9--9-----8--8--8-----7-----8-----7-------------|
--------------------------------------------7-------|
-----------------------------------------------10---|
----------------------------------------------------|


----------------------------------------------------|
----------------------------------------------------|
--------12----12----11L---11-10----10----9L----9----|
-----------14-------------------12------------------|
--9-------------------------------------------------|
----------------------------------------------------|


----------------------------------------------------|
----------------------------------------------------|
--8-----8-----7-----------------11----12------------|
-----10----------------------------12---------------|
----------------------------------------------------|
----------------------------------------------------|


----------------------------------------------------|
--------7--7--8--8--10-10-11-11-8--8--7--7----------|
----------------------------------------------------|
----------------------------------------------------|
----------------------------------------------------|
----------------------------------------------------|


----------------------------------------------------|
--------7--7--8--8--10-10-11-11-13-13-11-11---------|
----------------------------------------------------|
----------------------------------------------------|
----------------------------------------------------|
----------------------------------------------------|


----------------------------------------------------|
--------7--7--8--8--10-10-11-11-8--8--7--7----------|
----------------------------------------------------|
----------------------------------------------------|
----------------------------------------------------|
----------------------------------------------------|


----------------------------------------------------|
--------7--7--8--8--10-10-11-11-13----15------------|
----------------------------------------------------|
----------------------------------------------------|
----------------------------------------------------|
----------------------------------------------------|


----------------------------------------------------|
--------7--7--8--8--10-10-11-11-8--8--7--7----------|
----------------------------------------------------|
----------------------------------------------------|
----------------------------------------------------|
----------------------------------------------------|


----------------------------------------------------|
--------7--7--8--8--10-10-11-11-13-13-11-11---------|
----------------------------------------------------|
----------------------------------------------------|
----------------------------------------------------|
----------------------------------------------------|


----------------------------------------------------|
--------7--7--8--8--10-10-11-11-8--8--7--7----------|
----------------------------------------------------|
----------------------------------------------------|
----------------------------------------------------|
----------------------------------------------------|


----------------------------------------------------|
--------7--7--8--8--10-10-11-11-13----15------------|
----------------------------------------------------|
----------------------------------------------------|
----------------------------------------------------|
----------------------------------------------------|


----------------------------------------------------|
--11-10----10-11-10----10-11-10----10-11-10----10---|
--------11----------11----------11----------11------|
----------------------------------------------------|
----------------------------------------------------|
----------------------------------------------------|


--18-17----17-18-17----17-18-17----17-22------------|
--------19----------19----------19------------------|
----------------------------------------------------|
----------------------------------------------------|
----------------------------------------------------|
----------------------------------------------------|

                                            W  W
----------------------------------------------------|
--------------------------------------------14L14L--|
----------------------------------------------------|
----------------------------------------------------|
----------------------------------------------------|
----------------------------------------------------|


--------------------------------------15------------|
--14L14L14L14L14L14L14L14b15----------------16------|
----------------------------------------------------|
----------------------------------------------------|
----------------------------------------------------|
----------------------------------------------------|


--------------------------------------------------------------------------------|
--15----------------------------------------10-14-15----------------------------|
--------------------------------------------------------------------------------|
--------------------------------------------------------------------------------|
--------------------------------------------------------------------------------|
--------------------------------------------------------------------------------|

      W     W
--------------------|----------------------------------------------------|
------14L---14L-----|--14L14L14L14L14L14L14L14b15------------------------|
--------------------|----------------------------------------------------|
--------------------|----------------------------------------------------|
--------------------|----------------------------------------------------|
--------------------|----------------------------------------------------|


----------------------------------------------------|
--------11----11----10------------------------------|
-----------12-------------11----12----10-10-10------|
----------------------------------------------------|
----------------------------------------------------|
----------------------------------------------------|


--------------------------------------------------------------------------------|
--------------------------------------------------------8-----------8-----------|
--9-----9-----9-----------8-----8-----8-----------7-----------8-----------7-----|
--------------------------------------------------------------------------------|
--------------------------------------------------------------------------------|
--------------------------------------------------------------------------------|


--------------------|----------------------------------------------------|
------8--6----------|--------------------------------------11-11-11------|
------------8--7----|--6-----------------------8-----7-------------------|
--------------------|--------8-----8-----7-------------------------------|
--------------------|-----------10---------------------------------------|
--------------------|----------------------------------------------------|


--------------------------------------------------------------------------------|
--10----10----10----------------------------------------10----------10----------|
--------------------------12----12----12----------11----------12----------11----|
--------------------------------------------------------------------------------|
--------------------------------------------------------------------------------|
--------------------------------------------------------------------------------|


--------------------|----------------------------------------------------|
--------------------|--------11----11----10------------------------------|
--------------------|-----------12-------------11----12----10-10-10------|
------12-10---------|----------------------------------------------------|
------------13-12---|--10------------------------------------------------|
--------------------|----------------------------------------------------|


----------------------------------------------------|
-----------------------------8-----8--------10------|
--9--9--9-----8--8--8-----7-----8-----7--------12---|
----------------------------------------------------|
----------------------------------------------------|
----------------------------------------------------|


----------------------------------------------------|
----------------------------------------------------|
--11----12----12----11L---11-10----10----9L----9----|
-----------14-------------------12------------------|
----------------------------------------------------|
----------------------------------------------------|


----------------------------|----------------------------------------|
----------------------------|----------------------------------------|
--8-----8-----7L----7L-7----|--7--7--7--5--5--7----------------------|
-----10---------------------|--------------------5-------------------|
----------------------------|----------------------------------------|
----------------------------|----------------------------------------|


----------------------------------------------------------------------------|
-----------7--7--7--8--8--8--10-10-10-11-11-11-8--8--8--7--7--7-------------|
----------------------------------------------------------------------------|
----------------------------------------------------------------------------|
----------------------------------------------------------------------------|
----------------------------------------------------------------------------|

                                                        W
----------------------------------------------------------------------------|
-----------7--7--7--8--8--8--10-10-10-11-11-11-13-13-13-11L11L11b-----------|
-----------------------------------------------------------------7--8--7----|
----------------------------------------------------------------------------|
----------------------------------------------------------------------------|
----------------------------------------------------------------------------|


----------------------------------------------------------------------------|
----------------------------------------------------------------------------|
-----------------------------5--7--5----------------------------------------|
--10-8--8--8--8--8--8--8--8-----------8--7--7--7--7--7--7--7--7-------------|
----------------------------------------------------------------------------|
----------------------------------------------------------------------------|


----------------------------------------------------------------------------|
-----------7--7--7--8--8--8--10-10-10-11-11-11-8--8--8--7--7--7-------------|
----------------------------------------------------------------------------|
----------------------------------------------------------------------------|
----------------------------------------------------------------------------|
----------------------------------------------------------------------------|

                                                        W
----------------------------------------------------------------------------|
-----------7--7--7--8--8--8--10-10-10-11-11-11-13-13-13-11L11L11b-----------|
-----------------------------------------------------------------7--8--7----|
----------------------------------------------------------------------------|
----------------------------------------------------------------------------|
----------------------------------------------------------------------------|


----------------------------------------------------------------------------|
----------------------------------------------------------------------------|
-----------------------------5--7--5----------------------------------------|
--10-8--8--8--8--8--8--8--8-----------8--7--7--7--7--7--7--7--7-------------|
----------------------------------------------------------------------------|
----------------------------------------------------------------------------|


----------------------------------------------------------------------------|
-----------7--7--7--8--8--8--10-10-10----------10-10-10-11-11-11-13-13-13---|
----------------------------------------------------------------------------|
----------------------------------------------------------------------------|
----------------------------------------------------------------------------|
----------------------------------------------------------------------------|

                                                        W  W  W  W  W  W
----------------------------------------------------------------------------|
-----------13-13-13-15-15-15-16-16-16-15-15-15-16-16-16-19L19L19L19L19L19---|
----------------------------------------------------------------------------|
----------------------------------------------------------------------------|
----------------------------------------------------------------------------|
----------------------------------------------------------------------------|


----------------------------------------------------------------------------|
--15-14----------14-15-14----------14-15-14----------14-15-14----------14---|
--------15-14-15----------15-14-15----------15-14-15----------15-14-15------|
----------------------------------------------------------------------------|
----------------------------------------------------------------------------|
----------------------------------------------------------------------------|


--22-21----------21-22-21----------21-22-21----------21-22-21----------21---|
--------23-22-23----------23-22-23----------23-22-23----------23-22-23------|
----------------------------------------------------------------------------|
----------------------------------------------------------------------------|
----------------------------------------------------------------------------|
----------------------------------------------------------------------------|


--24-25-24-22-21----21-22-24L25L24b22---------------------------------------|
-----------------23-------------------22-23-22----------------20------------|
-----------------------------------------------22-21-18-21-22----19---------|
----------------------------------------------------------------------------|
----------------------------------------------------------------------------|
----------------------------------------------------------------------------|


----------------------------------------------------------------------------|
----------------------------------------------------------------------------|
----------------------------------------------------------------------------|
-----------5-----5-----------5-----5-----------5-----5-----------8-----8----|
--5--5--5--5-----5--5--5--5--5-----5--5--5--5--5-----5--5--5--5--6-----6----|
--5--5--5--5-----5--5--5--5--5-----5--5--5--5--5-----5--5--5--5--5-----5----|


----------------------------------------------------------------------------|
----------------------------------------------------------------------------|
----------------------------------------------------------------------------|
-----------5-----5-----------5-----5-----------5-----5-----------8-----8----|
--5--5--5--5-----5--5--5--5--5-----5--5--5--5--5-----5--5--5--5--6-----6----|
--5--5--5--5-----5--5--5--5--5-----5--5--5--5--5-----5--5--5--5--5-----5----|


----------------------------------------------------------------------------|
----------------------------------------------------------------------------|
----------------------------------------------------------------------------|
-----------5-----5-----------7-----7-----------8-----8----------------------|
-----------------------------------------------------------------9-----9----|
--5--5--5-----5-----5--5--5-----5-----5--5--5-----5-----5--5--5-----5-------|


----------------------------------------------------------------------------|
----------------------------------------------------------------------------|
----------------------------------------------------------------------------|
-----------5-----5-----------7-----7-----------8-----8----------------------|
-----------------------------------------------------------------9-----9----|
--5--5--5-----5-----5--5--5-----5-----5--5--5-----5-----5--5--5-----5-------|


-------------------------------------------------------------------|
--11-11-8--11-11-11-10-10-10---------------------------------------|
-----------------------------11-11-11-12-12-12-10-10-10-10L10L10---|
-------------------------------------------------------------------|
-------------------------------------------------------------------|
-------------------------------------------------------------------|


----------------------------------------------------------------------------|
----------------------------------------------------------------------------|
--9--9--9--9L-9L-9--8--8--8--8L-8L-8--7--7--12-8--8--12-7L-7L-7--7----------|
--------------------------------------------------------------------10-8----|
----------------------------------------------------------------------------|
----------------------------------------------------------------------------|


----------------------------------------------------------------------------|
--------------------------------------------------------11-11-11-11L11L11---|
--------------------------------------8--8--8--7--7--7----------------------|
--7L-7L-7--8--8--5--8--8--8--7--7--7----------------------------------------|
----------------------------------------------------------------------------|
----------------------------------------------------------------------------|


----------------------------------------------------------------------------|
--10-10-10-10L10L10---------------------------------------------------------|
--------------------12-12-12-12L12L12-11-11-14-12-12-14-11------------------|
-----------------------------------------------------------------12-10------|
-----------------------------------------------------------------------13---|
----------------------------------------------------------------------------|


----------------------------------------------------------------------------|
-----------11-11-8--11-11-11-10-10-10---------------------------------------|
--------------------------------------11-11-11-12-12-12-10-10-10-10L10L10---|
----------------------------------------------------------------------------|
--10L10L10------------------------------------------------------------------|
----------------------------------------------------------------------------|


----------------------------------------------------------------------------|
-----------------------------------------------------------------10-10------|
--9--9--9--9L-9L-9--8--8--8--8L-8L-8--7--7--12-8--8--12-7L-7L-7--------12---|
----------------------------------------------------------------------------|
----------------------------------------------------------------------------|
----------------------------------------------------------------------------|


----------------------------------------------------------------------------|
----------------------------------------------------------------------------|
--11L11L11-12-12----12-12-12-11-11-11-11L11L11-10-10----10-10-10-9--9--9----|
-----------------14----------------------------------12---------------------|
----------------------------------------------------------------------------|
----------------------------------------------------------------------------|


----------------------------------------------------------------------------|
----------------------------------------------------------------------------|
--9L-9L-9--8--8-----8--8--8--7--7--7--7L-7L-7--11-11----12------------------|
-----------------10----------------------------------12---------------------|
----------------------------------------------------------------------------|
----------------------------------------------------------------------------|


----------------------------------------------------------------------------||
----------------------------------------------------------------------------||
----------------------------------------------------------------------------||
----------------------------------------------------------------------------||
----------------------------------------------------------------------------||
----------------------------------------------------------------------------||
Tap to rate this tab
# A B C D E F G H I J K L M N O P Q R S T U V W X Y Z