Guitaretab - guitar tabs
Song name
# A B C D E F G H I J K L M N O P Q R S T U V W X Y Z

August Burns Red - Reflective Property tab

http://www.augustburnsred.com/

I havent figured out the ending yet, but ill do that as soon as ive got time. This is 
ive got now. Enjoy! :)

Drop C-

  Intro
||----------------------------------------------------------------------|
||---------------------------------------------------------3-3-6-6------|
||-------------------------------------------------2-2-3-3--------------|
||-7-7-3-3---------7-7-3-3-----------------0-0-2-2----------------------|
||---------7-7-5-5---------7-7-5-5-1-1-3-3------------------------------|
||----------------------------------------------------------------------|

||----------------------------------------------------------------------|
||----------------------------------------------------------------------|
||-----------------2-2-3-3-5-5------------------------------------------|
||---------0-0-2-2-------------5-5--------------------------------------|
||-1-1-3-3--------------------------0~----------------------------------|
||----------------------------------0~------000-------------------------|
                                            ...

   Vers I
||----------------------------------------------------------------------|
||---------------9---7---12--10--9--------------------------------------|
||-------7---8----------------------------------------------------------|
||----------------------------------------------------------------------|
||-0-0-0---0---0---0---0---0----0---------------------------------------|
   . . .   .   .   .   .   .    .
||----------------------------------------------------------------------|
||----------------------------------------------------------------------|
||-----10/9---12/10---14/12---15/14-------------------------------------|
||-----x-x----x--x----x--x----x--x--------------------------------------|
||-----8/7----10/8----12/10---13/12-------------------------------------|
||-000------0-------0-------0-------------------------------------------|
   ...      .       .       .

   Vers II
||----------------------------------------------------------------------|
||----------------------------------------------------------------------|
||-----5---7----------10-9---------7-----1010---9-9----5-5----7-7-------|
||-------------------------10-7-10-------x-x----x-x----x-x----x-x-------|
||---------------------------------------8-8----7-7----3-3----5-5-------|
||-0-0---0---0--00000----------------000-----000----000----000----------|
   . .   .   .  .....                ...     ...    ...    ...
||----------------------------------------------------------------------|
||----------------------------------------------------------------------|
||-----5---7----------10-9---------7-----1010---9-9-----1515-----1414---|
||-------------------------10-7-10-------x-x----x-x-----x--x-----x--x---|
||---------------------------------------8-8----7-7-----1313-----1212---|
||-0-0---0---0--00000----------------000-----000----000-------000-------|
   . .   .   .  .....                ...     ...    ...       ...


                Vers I again...


                Vers II again...


||----------------------------------------------------------------------|
||----------------------------------------------------------------------|
||----1010---9-9----1515----1414----------------------------------------|
||----x-x----x-x----x-x-----x-x-----------------------------------------|
||----8-8----7-7----1313----1212----------------------------------------|
||-000----000----000-----000--------------------------------------------| x3
   ...    ...    ...     ...
[ Tab from: http://www.guitaretab.com/a/august-burns-red/67535.html ]
   Breakdown I
||----------------------------------------------------------------------|
||----------------------------------------------------------------------|
||----------------------------------------------------------------------|
||----------------------------------------------------------------------|
||-000----000----000----000----000----000----000----000-----------------|
||-000----000----000----000----000----000----000----000-----------------|
   ...    ...    ...    ...    ...    ...    ...    ...

||----------------------------------------------------------------------|
||----------------------------------------------------------------------|
||----------------------------------------------------------------------|
||---------------------777555444----------------------------------------|
||------3----5----3-------------777555444-------------------------------|
||-000--3----5----3----------------------777555444----------------------|
   ...
||----------------------------------------------------------------------|
||----------------------------------------------------------------------|
||----------------------------------------------------------------------|
||------------------777555444-------------------------------------------|
||------3----5----3----------777555444----------------------------------|
||-000--3----5----3-------------------777555444-------------------------|
   ...

   Breakdown II
||----------------------------------------------------------------------|
||----------------------------------------------------------------------|
||----------------------------------------------------------------------|
||----------------------------------------------------------------------|
||-000000000--0--0----0----0----0--000----------------------------------|
||-000000000--0--0----0----0----0--000----------------------------------|
   .........  .  .    .    .    .  ...

||----------------------------------------------------------------------|
||----------------------------------------------------------------------|
||----------------------------------------------------------------------|
||----------------------------------------------------------------------|
||------8-----3----5----------------------------------------------------|
||-000--8--0--3----5----------------------------------------------------|
   ...     .
||----------------------------------------------------------------------|
||----------------------------------------------------------------------|
||----------------------------------------------------------------------|
||-----7-------------------------------7---------5-8-7------------------|
||---------5---7---8---5---8---7-----------5---7-------8-7-5------------|
||-0-0---0---0---0---0---0---0---0-0-0---0---0---------------8-7--------|
   . .   .   .   .   .   .   .   . . .   .   .
||----------------------------------------------------------------------|
||----------------------------------------------------------------------|
||----------------------------------------------------------------------|
||-----7----------------------------------------------------------------|
||---------5---7---8---5---8---7-----8---8-----8-----8--3--5------------|
||-0-0---0---0---0---0---0---0---000-8-0-8-0-0-8-0-0-8--3--5------------|
   . .   .   .   .   .   .   .   ...   .   . .   . .
||----------------------------------------------------------------------|
||----------------------------------------------------------------------|
||----------------------------------------------------------------------|
||----------------------------------------------------------------------|
||-000444555777-000444555777--------------------------------------------|
||----------------------------------------------------------------------|
   ............ ............

If you have the rest post it. Thanks, rate please!
Related for Reflective Property tab
Advertisement will be closed in 10 seconds