Song name
# A B C D E F G H I J K L M N O P Q R S T U V W X Y Z

August Burns Red - Speech Impediment tab

-----------------------------------------------------------------------------
	            Speech Impediment - August Burns Red
-----------------------------------------------------------------------------
Tabbed by: littlewahoo27
Email: littlewahoo27@yahoo.com

Tuning: Drop C

Intro

   Guitar I
e|--------------------------------------------------------------------------|
B|--------------------------------------------------------------------------|
G|-10-9-------10-9-------10-9-------10-9------------repeats-2x--------------|
D|------10-12------10-12------10-12------10-12------------------------------|
A|--------------------------------------------------------------------------|
E|--------------------------------------------------------------------------|

   Guitar 2
e|--------------------------------------------------------------------------|
B|--------------------------------------------------repeats-1x--------------|
G|-14-12-------14-12-------14-12-------14-12--------------------------------|
D|-------14-15-------14-15-------14-15-------14-15--------------------------|
A|--------------------------------------------------------------------------|
E|--------------------------------------------------------------------------|

   then comes in with this

   Guitar 1
e|--------------------------------------------------------------------------|
B|-10-9-------10-9-------10-9-------10-9---------repeat-4x------------------|
G|------10-12------10-12------10-12------10-12------------------------------|
D|--------------------------------------------------------------------------|
A|--------------------------------------------------------------------------|
E|--------------------------------------------------------------------------|

   Guitar 2
e|--------------------------------------------------------------------------|
B|--------------------------------------------------------------------------|
G|----------------------------------------2--------------------------repeat-|
D|-8--------------------------------3-2-3-2-0--------------3------5---------|
A|-8--------------------------------3-2-3-0-0--------------3------5---------|
E|-8--------------------------------3-2-3---0--------------3------5---------|

   Verse
e|--------------------------------------------------------------------------|
B|-------------------------------------------------------repeat-3x----------|
G|----------------7-7-6-6-9-9-7-7-10-10p7-----------------------------------|
D|------------5h7--------------------------8------------------10p7-8p5h8p5--|
A|-0--7h8--x---------------------------------10-8------5h7h8----------------|
E|-0-------x----------------------------------------------------------------|

  then a little piece of the intro is played, followed by a breakdown
e|--------------------------------------------------------------------------|
B|--------------------------------------------------------------------------|
G|----------------------------5/6-----------------------------3-------------|
D|-0-000-0--000--0-00-00-0-0-------0-000-0--000--0-00-00-0-0----------------|
A|-0-000-0--000--0-00-00-0-0--3/4--0-000-0--000--0-00-00-0-0--1-------------|
E|-0-000-0--000--0-00-00-0-0-------0-000-0--000--0-00-00-0-0----------------|

i havent figured out the riff after the break down yet, so if you know it please send it
me. but i have figured out the last part of it and it goes like this:

                                                  +  +  +
e|----------9----------9----------9-13-12-13-12--18-17----------18-17-------|
B|-10-11-13---10-11-13---10-11-13----------------------17-18-17-------------|
G|--------------------------------------------------------------------------|
D|--------------------------------------------------------------------------|
A|--------------------------------------------------------------------------|
E|--------------------------------------------------------------------------|
                                                  +  +  +
e|----------9----------9----------9-13-12-13-12--18-17----------------------|
B|-10-11-13---10-11-13---10-11-13----------------------17-18-18-18-18-18-18-|
G|--------------------------------------------------------------------------|
D|--------------------------------------------------------------------------|
A|--------------------------------------------------------------------------|
E|--------------------------------------------------------------------------|

e|--------------------------------------------------------------------------|
B|--------------------------------------------------------------------------|
G|-7-7-7-7-7-7-7-7-7-9-9-9-10-10-10-10-10-10-10-10-10-10-10-10--------------|
D|--------------------------------------------------------------------------|
A|--------------------------------------------------------------------------|
E|--------------------------------------------------------------------------|

e|--------------------------------------------------------------------------|
B|--------------------------------------------------------------------------|
G|-------------------------------------10-10-10-10-10-10-9-9-9-9-9-9--------|
D|-10-10-10-10-10-10-10-10-10-10-10-10--------------------------------------|
A|--------------------------------------------------------------------------|
E|--------------------------------------------------------------------------|
   then breaks into 2 guitar parts
e|-----------------------------------------------10101010101012121212-------|
B|-Guitar-I--11-11-11-11-11-11-11-11-11-11-11-11----------------------------|
G|-Guitar-2--3--3--3--3--3--3--3--3--3--3--3--3--2-2-2-2-2-2----------------|
D|-----------------------------------------------------------3-3-3-3--------|
A|--------------------------------------------------------------------------|
E|--------------------------------------------------------------------------|

e|--------------------------------------------------------------------------|
B|--------------------------------------------------------------------------|
G|----------------------------------------------then-repeat-past-3-staffs---|
D|------------8-7-5--0h7h8-0h5h7-0h3h5-0h3h5--------------------------------|
A|------5-7-8---------------------------------------------------------------|
E|-000----------------------------------------------------------------------|

e|--------------------------------------------------------------------------|
B|--------------------------------------------------------------------------|
G|-------------------(repeat-3x)--------------------------------------------|
D|------------8-7-5---------------0h7h8-0h5h7-0h3h5-0h3h5-------------------|
A|------5-7-8---------------------------------------------------------------|
E|-000----------------------------------------------------------------------|

e|--------------------------------------------------------------------------|
B|--------------------------------------------------------------------------|
G|-------------------(repeat-3x)--------------------------------------------|
D|------------8-7-5---------------0h7h8-0h5h7-0h3h5-0h3h5-------------------|
A|------5-7-8---------------------------------------------------------------|
E|-000----------------------------------------------------------------------|

e|--------------------------------------------------------------------------|
B|-repeating-this-with-this-rhythm------------------------------------------|
G|--------------------------------------------------------------------------|
D|-0h2h3-0h5h7-0h3h5-0h7h8---0-000--0--000--0-00000--000--00000-------------|
A|---------------------------0-000--0--000--0-00000--000--00000-------------|
E|---------------------------0-000--0--000--0-00000--000--00000-------------|

   then it has some funky rhythm with this riff in the middle
e|--------------------------------------------------------------------------|
B|--------------------------------------------------------------------------|
G|--7-7-6-6-9-9-7-7-/-14----------------------------------------------------|
D|--------------------------------------------------------------------------|
A|--------------------------------------------------------------------------|
E|--------------------------------------------------------------------------|

   then goes back to the verse and is played twice and back to the intro.

this is my very first tab other than the tabs i do on Power Tab editor (which i highly
and there are a few parts i left out but once you get the feel of it you should be able
figure them out on your own. if you do please send them to me. this should all be 
thanks and please rate it!

| /  slide up
| \  slide down
| h  hammer-on
| p  pull-off
| ~  vibrato
| *  harmonic
| +  tremolo pick (pick very rapidly)
| x  Mute note
=============================================================================
Tap to rate this tab
# A B C D E F G H I J K L M N O P Q R S T U V W X Y Z