Song name
# A B C D E F G H I J K L M N O P Q R S T U V W X Y Z

August Burns Red - A Wish Full Of Dreams tab

Couldn't find an intro online.  Here it is.

Guitar 1
d|------------------------------------------------------|
A|------------------------------------------------------|
F|---------------------2-----------------3-2------------|
C|-----------------------3-5-----------------3----------|x4
G|---------8-5-0-5-3-5-------------3-5---------0-8-7----|
C|--12-8-0-------------------2-0-3-----2----------------|

OR

d|------------------------------------------------------|
A|------------------------------------------------------|
F|---------------------2--------------------------------|
C|-----------------------3-5-------------8-7------------|x4
G|---------8-5-0-5-3-5-------------3-5-------8-0-8-7----|
C|--12-8-0-------------------2-0-3-----2----------------|

Guitar 2
d|------------------------------------------------------|
A|-------------------------------------------------10---|
F|---------------------7-5--------------10-9-9h10p9-----|
C|---------------7-5-7-----8-------------------------12-|x4
G|---------8-5-0-------------------3-5------------------|
C|--12-8-0-------------------2-0-3-----2----------------|

Peace
Tap to rate this tab
# A B C D E F G H I J K L M N O P Q R S T U V W X Y Z