Song name
# A B C D E F G H I J K L M N O P Q R S T U V W X Y Z

August Burns Red - Eve Of The End tab

----------------------------------------------------------------------------
			     Eve Of The End - ABR
----------------------------------------------------------------------------


Tabbed by: jmjx803
Email: jmjx803@yahoo.com

Tuning: drop c

This song is quite easy to play if you know the rhythm. And all i have tabbed is the 
guitar. This is my first tab as well so rate and tell me what you think.


d|---------------------------------------------------------------------------|
A|---------------------------------------------------------------------------|
F|--------14-14-14-14--------14-14-14-14-------------------------------------|
C|-0--0-0-12-12-12-12-0--0-0-12-12-12-12---------x4--------------------------|
G|-0--0-0-------------0--0-0-------------------------------------------------|
C|-0--0-0-------------0--0-0-------------------------------------------------|
   PM----|            PM----|


d|--------13-13-13-13--------13-13-13-13-------------------------------------|
A|---------------------------------------------------------------------------|
F|--------14-14-14-14--------14-14-14-14-------------------------------------|
C|-0--0-0-12-12-12-12-0--0-0-12-12-12-12---------x4--------------------------|
G|-0--0-0-------------0--0-0-------------------------------------------------|
C|-0--0-0-------------0--0-0-------------------------------------------------|
   PM----|            PM----|

d|-------------------------------------------------------------------------|
A|-------------------------------------------------------------------------|
F|-5--5-5-5--5-7--7-7--7-7-7-7-5--5-5-5--5-7--7-7--7-7-7-7-----------------|
C|-------------------------------------------------------------------------|
G|-7--7-7-7--7-7--7-7--7-7-7-7-6--6-6-6--6-6--6-6--6-6-6-6-----------------|
C|-7--7-7-7--7-7--7-7--7-7-7-7-6--6-6-6--6-6--6-6--6-6-6-6-----------------|


d|---------------------------------------------------------------------------|
A|---------------------------------------------------------------------------|
F|--------14-14-14-14--------14-14-14-14-------------------------------------|
C|-0--0-0-12-12-12-12-0--0-0-12-12-12-12---------x2--------------------------|
G|-0--0-0-------------0--0-0-------------------------------------------------|
C|-0--0-0-------------0--0-0-------------------------------------------------| PM----|            PM----|


d|-------------------------------------------------------------------------|
A|-------------------------------------------------------------------------|
F|-5--5-5-5--5-7--7-7--7-7-7-7-5--5-5-5--5-7--7-7--7-7-7-7-----------------|
C|-------------------------------------------------------------------------|
G|-7--7-7-7--7-7--7-7--7-7-7-7-6--6-6-6--6-6--6-6--6-6-6-6-----------------|
C|-7--7-7-7--7-7--7-7--7-7-7-7-6--6-6-6--6-6--6-6--6-6-6-6-----------------|


d|---------------------------------------------------------------------------|
A|---------------------------------------------------------------------------|
F|--------14-14-14-14--------14-14-14-14-------------------------------------|
C|-0--0-0-12-12-12-12-0--0-0-12-12-12-12---------x2--------------------------|
G|-0--0-0-------------0--0-0-------------------------------------------------|
C|-0--0-0-------------0--0-0-------------------------------------------------| PM----|            PM----|


d|-------------------------------------------------------------------------|
A|-------------------------------------------------------------------------|
F|-5--5-5-5--5-7--7-7--7-7-7-7-5--5-5-5--5-7--7-7--7-7-7-7-----------------|
C|-------------------------------------------------------------------------|
G|-7--7-7-7--7-7--7-7--7-7-7-7-6--6-6-6--6-6--6-6--6-6-6-6-----------------|
C|-7--7-7-7--7-7--7-7--7-7-7-7-6--6-6-6--6-6--6-6--6-6-6-6-----------------|


d|--------13-13-13-13--------13-13-13-13-------------------------------------|
A|---------------------------------------------------------------------------|
F|--------14-14-14-14--------14-14-14-14-------------------------------------|
C|-0--0-0-12-12-12-12-0--0-0-12-12-12-12---------x2--------------------------|
G|-0--0-0-------------0--0-0-------------------------------------------------|
C|-0--0-0-------------0--0-0-------------------------------------------------|
   PM----|            PM----|


d|-------------------------------------------------------------------------|
A|-------------------------------------------------------------------------|
F|-5--5-5-5--5-7--7-7--7-7-7-7-5--5-5-5--5-7--7-7--7-7-7-7-----------------|
C|-------------------------------------------------------------------------|
G|-7--7-7-7--7-7--7-7--7-7-7-7-6--6-6-6--6-6--6-6--6-6-6-6-----------------|
C|-7--7-7-7--7-7--7-7--7-7-7-7-6--6-6-6--6-6--6-6--6-6-6-6-----------------|

 Go into clean and then play this:

d|-------------------------------------------------------------------------|
A|-------------------------------------------------------------------------|
F|-5--5-5-5--5-7--7-7--7-7-7-7-5--5-5-5--5-7--7-7--7-7-7-7-----------------|
C|-------------------------------------------------------------------------|
G|-7--7-7-7--7-7--7-7--7-7-7-7-6--6-6-6--6-6--6-6--6-6-6-6-----------------|
C|-7--7-7-7--7-7--7-7--7-7-7-7-6--6-6-6--6-6--6-6--6-6-6-6-----------------|


d|---------13-13-13-13---------13-13-13-13---------------------------------|
A|-------------------------------------------------------------------------|
F|-------------------------------------------------------------------------|
C|-------------------------------------------------x2----------------------|
G|-------------------------------------------------------------------------|
C|-0-0-0-0-------------0-0-0-0---------------------------------------------|


d|-------------------------------------------------------------------------|
A|-------------------------------------------------------------------------|
F|-5--5-5-5--5-7--7-7--7-7-7-7-5--5-5-5--5-7--7-7--7-7-7-7-----------------|
C|-------------------------------------------------------------------------|
G|-7--7-7-7--7-7--7-7--7-7-7-7-6--6-6-6--6-6--6-6--6-6-6-6-----------------|
C|-7--7-7-7--7-7--7-7--7-7-7-7-6--6-6-6--6-6--6-6--6-6-6-6-----------------|


d|---------13-13-13-13---------13-13-13-13---------------------------------|
A|-------------------------------------------------------------------------|
F|-------------------------------------------------------------------------|
C|-------------------------------------------------x2----------------------|
G|-------------------------------------------------------------------------|
C|-0-0-0-0-------------0-0-0-0---------------------------------------------|


d|-------------------------------------------------------------------------|
A|-------------------------------------------------------------------------|
F|-5--5-5-5--5-7--7-7--7-7-7-7-5--5-5-5--5-7--7-7--7-7-7-7-----------------|
C|-------------------------------------------------------------------------|
G|-7--7-7-7--7-7--7-7--7-7-7-7-6--6-6-6--6-6--6-6--6-6-6-6-----------------|
C|-7--7-7-7--7-7--7-7--7-7-7-7-6--6-6-6--6-6--6-6--6-6-6-6-----------------|

 I'm not so sure about this part:

d|---------------------------------------------------------------------------|
A|---------------------------------------------------------------------------|
F|-5--5-5-5--5-5--5-5--5-5-5-5-7--7-7-7--7-7---------------------------------|
C|-7--7-7-7--7-7--7-7--7-7-7-7-9--9-9-9--9-9---------------------------------|
G|-------------------------------------------0--0--0--0--0--0--0--0----------|
C|-------------------------------------------0--0--0--0--0--0--0--0----------|
                                             PM-with-distortion--------------|

d|---------------------------------------------------------------------------|
A|---------------------------------------------------------------------------|
F|-14-14-14-14---------------------15-15-15-15-------------------------------|
C|-12-12-12-12-0---0---0---0-0-0-0-12-12-12-12-0---0---0---0-0-0-0----x10----|
G|-------------0---0---0---0-0-0-0-------------0---0---0---0-0-0-0-----------|
C|-------------0---0---0---0-0-0-0-------------0---0---0---0-0-0-0-----------|
               PM            PM---|            PM            PM--------------|

d|-------------------------------------------------------------------------|
A|-------------------------------------------------------------------------|
F|-------------------------------------------------------------------------|
C|-0~----------------------------------------------------------------------|
G|-0~----------------------------------------------------------------------|
C|-0~----------------------------------------------------------------------|


 Let me know if there are any mistakes in this. Enjoy!
Tap to rate this tab
 
# A B C D E F G H I J K L M N O P Q R S T U V W X Y Z