Song name
# A B C D E F G H I J K L M N O P Q R S T U V W X Y Z

August Burns Red - Your Little Suburbia In Ruins tab

D| -------------------------------------------------------------------|
A| -------------------------------------------------------------------|
F| -------------------------------------------------------------------|
C| --7---8--0--7----8--000--------6-7----8--0--7---8--0-------6-7---8-|
G| ----5----0-----5----000--7-8-5------5----0----5----0-7-8-5-----5---|
C| ---------0----------000------------------0---------0---------------|

D| -------------------------------------------------------------------|
A| -------------------------------------------------------------------|
F| -------------------------------------------------------------------|
C| 0-7---8--000--------6-7---8--0--7---8--0--------6-7------------7---|
G| 0---5----000--7-8-5-----5----0----5----0--7-8-5------8-7-5-1-4-----|
C| 0--------000-----------------0---------0---------------------------|

D| -----------------------------------------------------------------|
A| -----------------------------------------------------------------|
F| -----------------------------------------------------------------|
C| --------------------------0-5-8-0-5-8----------------------------|X2
G| -0-5-8-0-5-8-0-4-7-0-4-7---------------0-5-8-0-5-8---------------|
C| -----------------------------------------------------------------|

D| -----------------------------------------------------------------|
A| -----------------------------------------------------------------|
F| --0-5-8-0-5-8----------------------------------------------------|
C| ----------------0-5-8-0-5-8--------------------------------------|
G| ------------------------------0-4-7-0-4-7--0-5-8-0-5-8-----------|X2
C| -----------------------------------------------------------------|

thats all i could get for now.idk if its perfect but its close.
Tap to rate this tab
# A B C D E F G H I J K L M N O P Q R S T U V W X Y Z