Song name
# A B C D E F G H I J K L M N O P Q R S T U V W X Y Z

August Burns Red - Wowzers tab

Track 1
      E  E  H.              E  E  H.              E  E  E  E  H         
C#||---------------------|---------------------|-----------------------|
G#||---------------------|---------------------|-----------------------|
E ||---------------------|---------------------|-----------------------|
B ||---------------------|---------------------|-----------------------|
F#||--2--1---------------|--2--1---------------|--3--2--4--L--L--------|
B ||--2--1---------------|--2--1---------------|--3--2--4--L--L--------|


  E  E  H.              E  E  H.              E  E  H.            
---------------------|---------------------|---------------------|
---------------------|---------------------|---------------------|
---------------------|---------------------|---------------------|
---------------------|---------------------|---------------------|
--1--0---------------|--1--0---------------|--2--1---------------|
--1--0---------------|--1--0---------------|--2--1---------------|


  E   E  H.            
----------------------|
----------------------|
----------------------|
----------------------|
--3s--0---------------|
--4s--1---------------|


  PM PM PM PM PM PM      PM PM PM PM PM PM      PM PM PM PM PM PM       
  |--3--|  |--3--|  |--3-|  |--3--|  |--3--|  |--3-|  |--3--|  |--3--|  
  S  S  S  S  S  S  S  S S  S  S  S  S  S  S  S S  S  S  S  S  S  S  S  
-----------------------------------------------------------------------|
-----------------------------------------------------------------------|
-----------------------------------------------------------------------|
-----------------------------------------------------------------------|
--------------------4h-5-------------------1h-2-------------------6h-7-|
--0--0--0--0--0--0-------0--0--0--0--0--0-------0--0--0--0--0--0-------|


                                        PM PM PM PM PM PM      PM PM PM  
  |--3--|  |--3--|  |--3--|  |--3--|  |--3-|  |--3--|  |--3--| |--3--|   
  S  S  S  S  S  S  S  S  S  S  S  S  S S  S  S  S  S  S  S  S S  S  S   
------------------------------------------------------------------------|
------------------------------------------------------------------------|
------------------------------------------------------------------------|
------------------------------------------------------------------------|
----------------------------------------------------------5p-4----------|
--1p-0h-3h-4p-0h-4p-3p-0h-1h-2p-0h-2p-1-0--0--0--0--0--0-------0--0--0--|


  PM PM PM      PM PM PM PM PM PM      PM PM PM PM PM PM      PM PM PM   
  |--3--|  |--3-|  |--3--|  |--3--|  |--3-|  |--3--|  |--3--| |--3--|    
  S  S  S  S  S S  S  S  S  S  S  S  S S  S  S  S  S  S  S  S S  S  S    
-----------------------------------------------------------------------||
-----------------------------------------------------------------------||
-----------------------------------------------------------------------||
-----------------------------------------------------------------------||
-----------2p-1-------------------7p-6-------------------0h-1----------||
--0--0--0-------0--0--0--0--0--0-------0--0--0--0--0--0-------0--0--0--||




Duration Legend
---------------
W - whole
H - half
Q - quarter
E - 8th
S - 16th
T - 32nd
X - 64th
. - note dotted
|-n-|  - n-tuplets


Tablature Legend
----------------
L - tied note
x - dead note
g - grace note
(n) - ghost note
> - accentuded note
NH - natural harmonic
AH - artificial harmonic
TH - tapped harmonic
SH - semi harmonic
PH - pitch harmonic
h - hammer on
p - pull off
b - bend
br - bendRelease
pb - preBend
pbr - preBendRelease
brb - bendReleaseBend
\n/ - tremolo bar dip
\n - tremolo bar dive
-/n - tremolo bar Release up
/n\ - tremolo bar inverted dip
/n - tremolo bar return
-\n - tremolo bar Release down
S - shift slide
s - legato slide
/ -  slide into from below or out of upwards
\ -  slide into from above or out of downwards
~ - vibrato
W - wide vibrato
tr - trill
TP - tremolo picking
T - tapping
S - slap
P - pop
< - fade in
^ - brush up
v - brush down
Tap to rate this tab
 
# A B C D E F G H I J K L M N O P Q R S T U V W X Y Z