Song name
# A B C D E F G H I J K L M N O P Q R S T U V W X Y Z

August Burns Red - Eleventh Hour tab

THE ELEVENTH HOUR
As recorded by August Burns Red
(From the 2007 Album MESSENGERS)

Transcribed by Chris Allan

Here you go guys, for those without powertab. Really sorry about the length, nothing I 
really do about it though. If you don't have it I strongly suggest you download powertab, 
make your life and learning ABR that much easier :)


Words and Music by ABR
Arranged by ABR

 Intro
  Q=205
  N.C.
 4/4
  Gtrs I, II

    D5 N.C.  D5      N.C.  D5    N.C.   D5 N.C.  D5      N.C.
    PM       PM-|          PM-|   ~~~   PM       PM-|
||-----------------|------------------|----------------|--------------------|
||o----------------|------------------|----------------|-5h6p5--------------|
||-----------------|------------------|----------------|-------7-------9----|
||-----------------|-------------[4]--|----------------|---------0h7h8---8--|
||o-0--7h8p7-0--0--|-2h3p2-0--0-------|-0--4h5p4-0--0--|--------------------|
||--0--------0--0--|-------0--0-------|-0--------0--0--|--------------------|


  D5 N.C.   D5      N.C.   D5 N.C.              D5
  PM        PM-|           PM                   PM
|-----------------|--------------------------||--------|
|-----------------|-------------------------o||--------|
|-----------------|--------------------------||--------|
|-----------------|--------------------------||--------|
|-0--8h12p8-0--0--|-7h10p7-0--8h12p8-7h10p7-o||-0------|
|-0---------0--0--|--------0-----------------||-0------|


    D5 N.C.  D5      N.C.  D5    N.C.   D5 N.C.  D5      N.C.
    PM       PM-|          PM-|   ~~~   PM       PM-|
||-----------------|------------------|----------------|--------------------|
||o----------------|------------------|----------------|-5h6p5--------------|
||-----------------|------------------|----------------|-------7-------9----|
||-----------------|-------------[4]--|----------------|---------0h7h8---8--|
||o-0--7h8p7-0--0--|-2h3p2-0--0-------|-0--4h5p4-0--0--|--------------------|
||--0--------0--0--|-------0--0-------|-0--------0--0--|--------------------|


                    1.                          2.
  D5 N.C.   D5      N.C.   D5 N.C.              N.C.     D5 N.C.
  PM        PM-|           PM                            PM
|-----------------|--------------------------||-------------------------------|
|-----------------|-------------------------o||-------------------------------|
|-----------------|--------------------------||-------------------------------|
|-----------------|--------------------------||-------------------------------|
|-0--8h12p8-0--0--|-7h10p7-0--8h12p8-7h10p7-o||-10h13p10-0--12h15p12-13h17p13-|
|-0---------0--0--|--------0-----------------||----------0--------------------|


  D5
|----------|--------|
|----------|--------|
|----------|--------|
|-0--------|-(0)----|
|-0--------|-(0)----|
|-0--------|-(0)----|


  D5
                                          7/8
  PM---------------|          PM-----------------------|     PM
|--------------|-----------|-------------|-------------|
|--------------|-----------|-------------|-------------|
|--------------|-----------|-------------|-------------|
|--------------|-----------|-------------|-------------|
|-0-0--0--0-0--|-0-0-------|--0-0--0--0--|-0-----0-----|
|-0-0--0--0-0--|-0-0-------|--0-0--0--0--|-0-----0-----|


 "Here the strongest fall..."
  D5
 4/4
  Gtr I
  PM|   PM  PM|     PM|                  PM|   PM  PM    PM
|-----------------|------------------|-----------------|---------------|
|-----------------|------------------|-----------------|---------------|
|-----------------|-----7-10p9-------|-----------------|---------------|
|-----7---7-----6-|------------8p7---|-----------------|---------11----|
|-----------------|----------------8-|-5-----4---1---0-|---8-7-8-------|
|-0-0---0---0-0---|-0-0--------------|---0-0---0---0---|-0-------------|
|
| Gtr II
| PM------------------|                  PM------------------------------|        PM
|-----------------|------------------|-----------------|-----------------|
|-----------------|------------------|-----------------|-----------------|
|-----------------|------------------|-----------------|-----------------|
|-----------------|------------------|-----------------|-----------------|
|-0-0---0---0-0---|-0-0--------------|---0-0---0---0---|-0--------0------|
|-0-0---0---0-0---|-0-0--------------|---0-0---0---0---|-0--------0------|


    Gtrs I, II
    PM|   PM  PM|     PM|
||------------------|------------------|
||o-----------------|------------------|
||------------------|-----7-10p9-------|
||------7---7-----6-|------------8p7---|
||o-----------------|----------------8-|
||--0-0---0---0-0---|-0-0--------------|


    PM|   PM  PM    PM
|-----------------|---------------------||
|-----------------|--------------------o||
|-----------------|---------------------||
|-----------------|---------11----------||
|-5-----4---1---0-|---8-7-8----0-8-----o||
|---0-0---0---0---|-0--------------11---||


    D5                           Bb5
    Gtr I
    PM|   PM  PM|      PM-|
||------------------|--------------------|
||o-----------------|--------------------|
||------------------|-------7-10p9-------|
||------7---7-----6-|--------------8p7---|
||o-----------------|------------------8-|
||--0-0---0---0-0---|--0--0--------------|
|
|   Gtr II
||------------------|--------------------|
||o-----------------|--------------------|
||------------------|--------------------|
||--0---------------|-(0)--------8-------|
||o-0---------------|-(0)--------8-------|
||--0---------------|-(0)--------8-------|


  A5
    PM|   PM  PM     PM
|-----------------|----------------------|
|-----------------|----------------------|
|-----------------|----------------------|
|-----------------|-----------11---------|
|-5-----4---1---0-|-----8-7-8----0-8-----|
|---0-0---0---0---|--0---------------11--|
|
|-----------------|----------------------|
|-----------------|----------------------|
|-----------------|----------------------|
|-7---------------|-(7)------------------|
|-7---------------|-(7)------------------|
|-7---------------|-(7)------------------|


  D5                           C5
  PM|   PM  PM|      PM-|
|-----------------|---------------------|
|-----------------|---------------------|
|-----------------|-------7-10p=9-------|
|-----7---7-----6-|---------------8p7---|
|-----------------|-------------------8-|
|-0-0---0---0-0---|--0--0---------------|
|
|-----------------|---------------------|
|-----------------|---------------------|
|-----------------|---------------------|
|-0---------------|-(0)--------10-------|
|-0---------------|-(0)--------10-------|
|-0---------------|-(0)--------10-------|


 1.
  Bb5               A5
    PM|   PM  PM    PM
|-----------------|--------------------||
|-----------------|-------------------o||
|-----------------|--------------------||
|-----------------|---------11---------||
|-5-----4---1---0-|---8-7-8----0-8----o||
|---0-0---0---0---|-0--------------11--||
|
|-----------------|--------------------||
|-----------------|-------------------o||
|-----------------|--------------------||
|-8---------------|-7------------------||
|-8---------------|-7-----------------o||
|-8---------------|-7------------------||


  2.
  Bb5               C5
    PM|   PM  PM     PM
|-----------------|--------------------||
|-----------------|--------------------||
|-----------------|--------------------||
|-----------------|----------11--------||
|-5-----4---1---0-|----8-7-8----0-8----||
|---0-0---0---0---|--0--------------11-||
|
|-----------------|--------------------||
|-----------------|--------------------||
|-----------------|--------------------||
|-8---------------|-10-----------------||
|-8---------------|-10-----------------||
|-8---------------|-10-----------------||


 "But the masses buy..."
  Q=200
  N.C.
  Gtr I
  TP   TP TP   TP   TP TP   TP   TP TP   TP TP TP TP
|------------|------------|------------|-------------|
|------------|------------|------------|-------------|
|------------|------------|------------|-------------|
|------------|------------|------------|----3--2-----|
|-5----0--1--|-5----0--1--|-5----0--1--|-5--------4--|
|------------|------------|------------|-------------|
|
| Gtr II
| TP   TP TP   TP   TP TP   TP   TP TP   TP TP TP TP
|------------|------------|------------|-------------|
|------------|------------|------------|-------------|
|------------|------------|------------|-------------|
|------------|------------|------------|----3--2-----|
|-5----0--1--|-5----0--1--|-5----0--1--|-5--------4--|
|------------|------------|------------|-------------|


  N.C.
  TP   TP TP   TP   TP TP   TP   TP TP   TP TP TP TP
|------------|------------|------------|-------------|
|------------|------------|------------|-------------|
|------------|------------|------------|-------------|
|------------|------------|------------|----6--5-----|
|-8----4--5--|-8----4--5--|-8----4--5--|-8--------7--|
|------------|------------|------------|-------------|
|
| TP   TP TP   TP   TP TP   TP   TP TP   TP TP TP TP
|------------|------------|------------|-------------|
|------------|------------|------------|-------------|
|------------|------------|------------|-------------|
|------------|------------|------------|----3--2-----|
|-5----0--1--|-5----0--1--|-5----0--1--|-5--------4--|
|------------|------------|------------|-------------|


    N.C.
    Gtr III
||------------------|-5---5-----------|-----------------|-5---5-------------||
||o---------------5-|-------6-5-------|---------------5-|-------6-5--------o||
||--------------6---|---7-------7-6---|-------------6---|---7-------7-6-----||
||--7-----5-8-7-----|---------------8-|-7-----5-8-7-----|---------------8---||
||o---5-8-----------|-----------------|---5-8-----------|------------------o||
||------------------|-----------------|-----------------|-------------------||
|
|   Gtr I
|   TP      TP  TP    TP      TP  TP    TP      TP  TP    TP  TP  TP  TP
||------------------|-----------------|-----------------|-------------------||
||o-----------------|-----------------|-----------------|------------------o||
||------------------|-----------------|-----------------|-------------------||
||------------------|-----------------|-----------------|-----6---5---------||
||o-8-------4---5---|-8-------4---5---|-8-------4---5---|-8-----------7----o||
||------------------|-----------------|-----------------|-------------------||
|
|   Gtr II
|   TP      TP  TP    TP      TP  TP    TP      TP  TP    TP  TP  TP  TP
||------------------|-----------------|-----------------|-------------------||
||o-----------------|-----------------|-----------------|------------------o||
||------------------|-----------------|-----------------|-------------------||
||------------------|-----------------|-----------------|-----3---2---------||
||o-5-------0---1---|-5-------0---1---|-5-------0---1---|-5-----------4----o||
||------------------|-----------------|-----------------|-------------------||


  Q=160
  N.C.
 2/4
  Gtrs I, II
|-------------|-------------||
|-------------|-------------||
|-------------|-------------||
|-7-7-7-5-5-5-|-------------||
|-------------|-8-8-8-4-4-4-||
|-------------|-------------||


   Sickest Breakdown EVER
     D5
   4/4
     PM------------|      PM----|    PM--------|
||----------------------|----------------------|
||o---------------------|----------------------|
||----------------------|----------------------|
||----------------------|----------------------|
||o--0-0-0-0-0-0-0-0----|-0-0-0-0----0-0-0-0---|
||---0-0-0-0-0-0-0-0----|-0-0-0-0----0-0-0-0---|


    D5
    PM  PM--------------|    PM----|     PM|     PM----|
                                                           3x
|-------------------|------------------|-------------------||
|-------------------|------------------|------------------o||
|-------------------|------------------|-------------------||
|-------------------|------------------|-------------------||
|---0---0-0-0-0-0-0-|-0-0----0-0-0-0---|-0-0-----0-0-0-0--o||
|---0---0-0-0-0-0-0-|-0-0----0-0-0-0---|-0-0-----0-0-0-0---||


 "We got news for you..."
  D5
  Gtr I
|---------------------|-------------------|
|---------------------|-------------------|
|---------------------|-------------------|
|-0-------------------|-0-----------------|
|-0-------------------|-0-----------------|
|-0-------------------|-0-----------------|
|
| Gtr II
|                               PM
|---------------------|-------------------|
|---------------------|-------------------|
|---9-----10-7h10-----|-------------------|
|-----7-8---------8p0-|-------------------|
|---------------------|---7h8p0---3p0-1p0-|
|-0-------------------|-0-------0---------|


                                  PM------------|
|---------------------|-------------------------|
|---------------------|-------------------------|
|---------------------|-------------------------|
|-0-------------------|-0-----------------------|
|-0-------------------|-0---------0-0-0-0-0-0---|
|-0-------------------|-0---------0-0-0-0-0-0---|
|
|                               PM--------------|
|---------------------|-------------------------|
|---------------------|-------------------------|
|---9-----10-7h10-----|-------------------------|
|-----7-8---------8p0-|-------------------------|
|---------------------|---7h8p0---0-0-0-0-0-0---|
|-0-------------------|-0-------0-0-0-0-0-0-0---|


    D5
    PM----|      PM-----------|         PM------------|
||--------------------------|-------------------------|
||o-------------------------|-------------------------|
||--------------------------|-------------------------|
||--------------------------|-------------------------|
||o-0-0-0-0------0--0-0-0-0-|-0---------0-0-0-0-0-----|
||--0-0-0-0------0--0-0-0-0-|-0---------0-0-0-0-0-----|
|
|                                     PM
||--------------------------|-----------------------|
||o-------------------------|-----------------------|
||----9-------10-7h10-------|-----------------------|
||--------7-8---------8p0---|-----------------------|
||o-------------------------|---7h8p0---3p==0---1p0-|
||--0-----------------------|-0-------0-------------|


    PM--|      PM-----------|         PM----------------|
|-------------------------|-----------------------------|
|-------------------------|-------------------------o---|
|-------------------------|-----------------------------|
|-------------------------|-----------------------------|
|---0-0-0------0--0-0-0-0-|-0---------0-0-0-0-0-0---o---|
|---0-0-0------0--0-0-0-0-|-0---------0-0-0-0-0-0-------|
|
|                                   PM------------------|
|-------------------------|-----------------------------|
|-------------------------|-------------------------o---|
|---9-------10-7h10-------|-----------------------------|
|-------7-8---------8p0---|-----------------------------|
|-------------------------|---7h8p0---0-0-0-0-0-0---o---|
|-0-----------------------|-0-------0-0-0-0-0-0-0-------|


    D5
    Gtr I
    PM----|      PM-----------|             PM------------|
||--------------------------|-----------------------------|
||o-------------------------|-----------------------------|
||--------------------------|-----------------------------|
||--------------------------|-----------------------------|
||o-0-0-0-0------0--0-0-0-0-|--0------------0-0-0-0-0-----|
||--0-0-0-0------0--0-0-0-0-|--0------------0-0-0-0-0-----|
|
|   Gtr II
|                                         PM
||--------------------------|---------------------------|
||o-------------------------|---------------------------|
||----9-------10-7h10-------|---------------------------|
||--------7-8---------8p0---|---------------------------|
||o-------------------------|-----7h8p=0----3p==0---1p0-|
||--0-----------------------|--0----------0-------------|
|
|   Gtr III
||--------------------------|---------------------------|
||o-------------------------|---------------------------|
||--7-7---7-7-10-7----9-7---|---------------------------|
||--------------------------|-11-11---11-11-7---7---7-7-|
||o-------------------------|---------------------------|
||--------------------------|---------------------------|


    PM--|      PM-----------|             PM----------------|
|-------------------------|---------------------------------|
|-------------------------|-----------------------------o---|
|-------------------------|---------------------------------|
|-------------------------|---------------------------------|
|---0-0-0------0--0-0-0-0-|--0------------0-0-0-0-0-0---o---|
|---0-0-0------0--0-0-0-0-|--0------------0-0-0-0-0-0-------|
|
|                                       PM------------------|
|-------------------------|---------------------------------|
|-------------------------|-----------------------------o---|
|---9-------10-7h10-------|---------------------------------|
|-------7-8---------8p0---|---------------------------------|
|-------------------------|-----7h8p=0----0-0-0-0-0-0---o---|
|-0-----------------------|--0----------0-0-0-0-0-0-0-------|
|
|-------------------------|------------------------------||
|-------------------------|-----------------------------o||
|-7-7---7-7-10-7----9-7---|------------------------------||
|-------------------------|-11-11---11-11-7---7-7---7----||
|-------------------------|-----------------------------o||
|-------------------------|------------------------------||


   "Keep telling yourself..."
    N.C.
   7/4
    Gtr I
||--------------------------------------------|
||o-------------------------------------------|
||---7--7--7--7-10--7--9--7-------------------|
||--------------------------11-11-11-11--7--7-|
||o-------------------------------------------|
||--------------------------------------------|
|
|   Gtr II
||--13----12-------------13----12-------------|
||o----15----14-------15----15----14-------15-|
||--------------14-15----------------14-15----|
||--------------------------------------------|
||o-------------------------------------------|
||--------------------------------------------|


|--------------------------------------------||
|-------------------------------------------o||
|--7--7--7--7-10--7--9--7--------------------||
|-------------------------11-11-11-11--7--7--||
|-------------------------------------------o||
|--------------------------------------------||
|
|-13----12-------------13----12--------------||
|----15----14-------15----15----14-------15-o||
|-------------14-15----------------14-15-----||
|--------------------------------------------||
|-------------------------------------------o||
|--------------------------------------------||


    D5
     PM--------------|      PM--|         PM--------------|
||--------------------------------------------------------|
||o-------------------------------------------------------|
||--------------------------------------------------------|
||--------------------------------------------------------|
||o--0-----0-----0-0--0-----0-0--0--------0-0--0-0--0-0---|
||---0-----0-----0-0--0-----0-0--0--------0-0--0-0--0-0---|
|
||--13----12---------------13------12-------------------|
||o----15----14---------15------15----14-----------15---|
||--------------14---15------------------14---15--------|
||------------------------------------------------------|
||o-----------------------------------------------------|
||------------------------------------------------------|


 ------------------|      PM--|         PM-----------------|
|----------------------------------------------------------|
|------------------------------------------------------o---|
|----------------------------------------------------------|
|----------------------------------------------------------|
|--0-----0-----0-0--0-----0-0--0--------0-0--0-0--0-0--o---|
|--0-----0-----0-0--0-----0-0--0--------0-0--0-0--0-0------|
|
|-13----12---------------13------12---------------------||
|----15----14---------15------15----14-----------15----o||
|-------------14---15------------------14---15----------||
|-------------------------------------------------------||
|------------------------------------------------------o||
|-------------------------------------------------------||


    D5
    Gtrs I, II
    PM--------|  PM--|   PM----------------------|  PM--|   PM---------------|
||-----------------------------------|---------------------------------------|
||o----------------------------------|-----------------------------------o---|
||-----------------------------------|---------------------------------------|
||-----------------------------------|---------------------------------------|
||o-0--0--0-0-0--0-0-0---0-0-0-0-0-0-|-0--0--0-0-0--0-0-0---0-0-0-0-0-0--o---|
||--0--0--0-0-0--0-0-0---0-0-0-0-0-0-|-0--0--0-0-0--0-0-0---0-0-0-0-0-0------|


    D5
    Gtr I
||---------------------------------------------|
||o--------------------------------------------|
||--7-7-7-7-10---7-9-7-------------------------|
||-----------------------11-11-11-11---7---7---|
||o--------------------------------------------|
||---------------------------------------------|
|
|   Gtr II
|   PM-----------|   PM--|         PM------------|
||-----------------------------------------------|
||o----------------------------------------------|
||-----------------------------------------------|
||-----------------------------------------------|
||o-0---0----0-0-0---0-0--0--------0-0-0-0-0-0---|
||--0---0----0-0-0---0-0--0--------0-0-0-0-0-0---|


|----------------------------------------------||
|---------------------------------------------o||
|-7-7-7-7-10---7-9-7---------------------------||
|----------------------11-11-11-11---7---7-----||
|---------------------------------------------o||
|----------------------------------------------||
|
|--------------|   PM--|         PM---------------|
|-------------------------------------------------|
|---------------------------------------------o---|
|-------------------------------------------------|
|-------------------------------------------------|
|-0---0----0-0-0---0-0--0--------0-0-0-0-0-0--o---|
|-0---0----0-0-0---0-0--0--------0-0-0-0-0-0------|


  Q=205
  D5           N.C.
 4/4
             PM
|----------|-------------------||
|----------|-------------------||
|----------|-------------------||
|-0--------|---------11--------||
|-0--------|---8-7-8----0-8----||
|-0--------|-0--------------11-||
|
|----------|-------------------||
|----------|-------------------||
|----------|-------------------||
|-0--------|-0-----------------||
|-0--------|-0-----------------||
|-0--------|-0-----------------||


   Intro Revisited
    N.C.
    Gtrs I, II
    PM|   PM  PM|     PM|
||------------------|------------------|
||o-----------------|------------------|
||------------------|-----7-10p9-------|
||------7---7-----6-|------------8p7---|
||o-----------------|----------------8-|
||--0-0---0---0-0---|-0-0--------------|


    PM|   PM  PM    PM
                                        4x
|-----------------|---------------------||
|-----------------|--------------------o||
|-----------------|---------------------||
|-----------------|---------11----------||
|-5-----4---1---0-|---8-7-8----0-8-----o||
|---0-0---0---0---|-0--------------11---||


|---------|-x\----||
|---------|-x\----||
|---------|-x\----||
|---------|-------||
|---------|-------||
|---------|-------||


   "No matter what, ..."
    Q=200
    D5 N.C.  D5      N.C.  D5        D5 N.C.  D5      N.C.  D5
    PM       PM-|          PM-|      PM       PM-|          PM-|
||-----------------|---------------|----------------|-----------------||
||o----------------|---------------|----------------|----------------o||
||-----------------|---------------|----------------|-----------------||
||-----------------|---------------|----------------|-----------------||
||o-0--7h8p7-0--0--|-2h3p2-0--0----|-0--7h8p7-0--0--|-2h3p2-0--0-----o||
||--0--------0--0--|-------0--0----|-0--------0--0--|-------0--0------||


   Outro Breakdown
    D5
    PM PM----|  PM   PM----|  PM       PM----|  PM   PM----------------|
||-----------------|---------------|---------------|-------------------|
||o----------------|---------------|---------------|-------------------|
||-----------------|---------------|---------------|-------------------|
||-----------------|---------------|---------------|-------------------|
||o-0--0-0-0-0--0--|-0-0-0-0--0----|---0-0-0-0--0--|-0-0-0-0-0-0-0-0---|
||--0--0-0-0-0--0--|-0-0-0-0--0----|---0-0-0-0--0--|-0-0-0-0-0-0-0-0---|


  D5
  PM PM----|        PM--------------|  PM
|---------------|-------------------|
|---------------|---------------o---|
|---------------|-------------------|
|---------------|-------------------|
|-0--0-0-0-0----|---0-0-0-0--0--o---|
|-0--0-0-0-0----|---0-0-0-0--0------|


    D5 N.C.  D5      N.C.  D5    N.C.   D5 N.C.  D5      N.C.
    Gtr I
    PM       PM-|          PM-|   ~~~   PM       PM-|
||-----------------|------------------|----------------|--------------------|
||o----------------|------------------|----------------|--------------------|
||-----------------|------------------|----------------|--------------------|
||-----------------|-------------[4]--|----------------|-2h3p2-0-------2----|
||o-0--7h8p7-0--0--|-2h3p2-0--0-------|-0--4h5p4-0--0--|-----------0h1---1--|
||--0--------0--0--|-------0--0-------|-0--------0--0--|---------0----------|
|
|   Gtr II
|   PM       PM-|          PM-|   ~~~   PM       PM-|
||-----------------|------------------|----------------|--------------------|
||o----------------|------------------|----------------|-5h6p5--------------|
||-----------------|------------------|----------------|-------7-------9----|
||-----------------|-------------[4]--|----------------|---------0h7h8---8--|
||o-0--7h8p7-0--0--|-2h3p2-0--0-------|-0--4h5p4-0--0--|--------------------|
||--0--------0--0--|-------0--0-------|-0--------0--0--|--------------------|


                    1.
  D5 N.C.   D5      N.C.   D5 N.C.
  PM        PM-|           PM
|-----------------|--------------------------||
|-----------------|-------------------------o||
|-----------------|--------------------------||
|-----------------|--------------------------||
|-0--8h12p8-0--0--|-7h10p7-0--8h12p8-7h10p7-o||
|-0---------0--0--|--------0-----------------||
|
| PM        PM-|           PM
|-----------------|--------------------------||
|-----------------|-------------------------o||
|-----------------|--------------------------||
|-----------------|--------------------------||
|-0--8h12p8-0--0--|-7h10p7-0--8h12p8-7h10p7-o||
|-0---------0--0--|--------0-----------------||


  2.
  N.C.     D5 N.C.                D5
           PM                     PM
|-------------------------------|--------*|
|-------------------------------|--------*|
|-------------------------------|--------*|
|-------------------------------|--------*|
|-10h13p10-0--12h15p12-13h17p13-|-0------*|
|----------0--------------------|-0------*|
|
|          PM                     PM
|-------------------------------|--------*|
|-------------------------------|--------*|
|-------------------------------|--------*|
|-------------------------------|--------*|
|-10h13p10-0--12h15p12-13h17p13-|-0------*|
|----------0--------------------|-0------*|
Tap to rate this tab
# A B C D E F G H I J K L M N O P Q R S T U V W X Y Z