Song name
# A B C D E F G H I J K L M N O P Q R S T U V W X Y Z

Augustana - Wasteland tab

INTRO: Play 4 times
--------------------------------------------------------------------------|
--------------------------------------------------------------------------|
--------------------------------------------------------------------------|
-5-5-5-5-10-10-10-10-3-3-3-3-7-7-7-7-5-5-5-5-10-10-10-10-3-3-3-3-7-7-7-7--|
-5-5-5-5-10-10-10-10-3-3-3-3-7-7-7-7-5-5-5-5-10-10-10-10-3-3-3-3-7-7-7-7--|
--------------------------------------------------------------------------|

CHORUS: Play 3 times
--------------------------------------------------------------------------|
--------------------------------------------------------------------------|
--------------------------------------------------------------------------|
-----------------------9-9-9-9-9-9-9-9-9-9-9-9-4--------------------------|
-7-7-7-7-7-7-7-7-7-7-7-7-7-7-7-7-7-7-7-7-7-7-7-2-4-3----------------------|
-5-5-5-5-5-5-5-5-5-5-5---------------------------2-1----------------------|

End: Play 2 times
--------------------------------------------------------------------------|
--------------------------------------------------------------------------|
--------------------------------------------------------------------------|
--------------------------------------------------------------------------|
-7/3-7/3------------------------------------------------------------------|
-5/1-5/1------------------------------------------------------------------|

Order:
Intro
Chorus
Verse
End
Tap to rate this tab
 
# A B C D E F G H I J K L M N O P Q R S T U V W X Y Z