Song name
# A B C D E F G H I J K L M N O P Q R S T U V W X Y Z

Augustana - More Than A Love Song tab

| YMPY.0518 |
=============

title: More Than A Love Song
artist: Augustana
album: Midway Skies And Sleepless Mondays
I just ear-transcribed this tab... hope you like it :D
guitar 2 is full of slides. hahaha.

INTRO
Guitar 1

|---------------------------------|
|---------------------------------|
|---------------------------------| X2
|---------------------------------|  
|-4(x7)-3-------3(x3)-4(x3)-------|
|---------4(x8)-------------6(x9)-|
  .     . .     .     .     .
           PALM MUTE


GUITAR 2
(0:14)

|-3/4--4/3/4--4/3---3/4/3/4----3/4--4/3/4---3/4---4--6--6-|
|---------------------------------------------------------|
|---------------------------------------------------------|
|---------------------------------------------------------|
|---------------------------------------------------------|
|---------------------------------------------------------|

|3/4--4/3/4--4/3---3/4/3/4---4--6--4---3/4-|
|------------------------------------------|
|------------------------------------------|
|------------------------------------------|
|------------------------------------------|
|------------------------------------------|

=============================================================================
well, that's the whole intro :D
Tap to rate this tab
 
# A B C D E F G H I J K L M N O P Q R S T U V W X Y Z