Song name
# A B C D E F G H I J K L M N O P Q R S T U V W X Y Z

Augustana - I Still Aint Over You tab

Capo 1st

e|--------------------------------------------------------------------|
B|---5-/-7-7-7--5--3-3-3--------------3------------5-/-7-7-7--5--3-3--|
G|------------------------1-1-/-3-3------3---1-1----------------------|
D|--------------------------------------------------------------------|
A|--------------------------------------------------------------------|
E|--------------------------------------------------------------------|



e|--------------------------------------------------------------------|
B|----3---------------3-----------------------------------------------|
G|--------1-1-/-3-3------3-1------------------------------------------|
D|--------------------------------------------------------------------|
A|--------------------------------------------------------------------|
E|--------------------------------------------------------------------|
Tap to rate this tab
 
# A B C D E F G H I J K L M N O P Q R S T U V W X Y Z