Augustana - Sweet And Low Acoustic tab

**CAPO 4**

e|--------3-------3---------3------5p3--|
B|------3-------3---------3-------3---3-|
G|---4h5-----4h5---5---4h5-----4h5-----5|
D|--------------------------------------|
A|--------------------------------------|
E|--------------------------------------|

e|--------3-------3---------------------|
B|------3-------3-----------------------|
G|---4h5-----4h5----5-4-----------------|
D|--------------------------------------|
A|--------------------------------------|
E|--------------------------------------|

This little riff is played in the intro and throughout other parts of the song. This
best when played with your fingers instead of a a pick. For the transition from the "4h5"
the "3", the "3" should almost be like a hammer-on (basically, you shouldn't have to 
that string. Email me for mistakes, since I know they're definitely some. This is my
tab, I really have no idea what I'm doing, haha:)
Tap to rate this tab
 
# A B C D E F G H I J K L M N O P Q R S T U V W X Y Z