Augustana - Boston tab

-------------------------------------------------------------------------------
			     Boston - Augustana
-------------------------------------------------------------------------------
Tabbed by: puma.
Email:

Tuning: Standard

e|-----12----12-15-12----12--------12----12-15-12----12----------------------|
B|--13----13----------13--------12----12----------12-------------------------|
G|--12--------------------------12-------------------------------------------|
D|---------------------------------------------------------------------------|
A|---------------------------------------------------------------------------|
E|---------------------------------------------------------------------------|

e|-----12----12-15-12----19-----12-15-19-20--------13--12----12-15-12----12-----|
B|--13----13----------13-17-----------17-----------13-----13----------13--------|
G|--14----------------14--------------------------------------------------------|
D|-------------------------------------------------15---------------------------|
A|--12--------------------------------------------------------------------------|
E|------------------------------------------------------------------------------|

e|-----12----12-15-12----12-------13-12----12-15-12----12--------------------|
B|--13----13----------13----------13----13----------13-----------------------|
G|--12-----------------------------------------------------------------------|
D|--------------------------------15-----------------------------------------|
A|---------------------------------------------------------------------------|
E|---------------------------------------------------------------------------|

e|--15-12----12----12----12--------------------------------------------------|
B|--12----15----15----15-----------------------------------------------------|
G|--12-----------------------------------------------------------------------|
D|---------------------------------------------------------------------------|
A|---------------------------------------------------------------------------|
E|---------------------------------------------------------------------------|

************************************

| /   slide up
| \   slide down
| h   hammer-on
| p   pull-off
| ~   vibrato
| +   harmonic
| x   Mute note
| b   Bend
| pb  Pre-bend
| br  Bend release
| pbr Pre-bend release
| brb Bend release bend

************************************
Tap to rate this tab
 
# A B C D E F G H I J K L M N O P Q R S T U V W X Y Z