Augustana - Sundays Best tab

-----------------------------------------------------------------------------
			           Sunday's Best - Augustana
-----------------------------------------------------------------------------
Tabbed by:OrangeJ
Email: Omar_fallout2007@hotmail.com

These are pretty accurate chords for Sunday's Best. 
A lot if not all of it is just these chords
or a variation in the order but still same chords.
Hope this helps. Rates & comments please.

Tuning:Standard

  D D U U D U  D D U U D U  D D U U D U  D D U U D U
e|----0-0---0------0-0---0------0-0---0------0-0---0-------------|
B|----0-0-0-0------0-0---0------0-0---0------3-3---3-------------|
G|2-2-2-2-2-2--1-1-2-2-1-2--1-1-2-2-1-2--2-2-2-2-2-2-------------|
D|4-4-----4----2-2-----2----2-2-----2----0-0-----0---------------|
A|--------------------------4-4-----4----------------------------|
E|---------------------------------------------------------------|

             OR YOU CAN TRY THESE CHORD THINGS
(same strumming pattern as chords above)

e|0------------0-------------0-----------0------------------------|
B|0------------0-------------0-----------3------------------------|
G|x------------x-------------xor(1)------2------------------------|
D|7------------6-------------2-----------0------------------------|
A|9------------7-------------4-----------x------------------------|
E|x------------x-------------x-----------x------------------------|

Enjoy



************************************

| /   slide up
| \   slide down
| h   hammer-on
| p   pull-off
| ~   vibrato
| +   harmonic
| x   Mute note
| b   Bend
| pb  Pre-bend
| br  Bend release
| pbr Pre-bend release
| brb Bend release bend

************************************
Tap to rate this tab
 
# A B C D E F G H I J K L M N O P Q R S T U V W X Y Z