Song name
# A B C D E F G H I J K L M N O P Q R S T U V W X Y Z

Augustana - I Still Aint Over You tab

-------------------------------------------------------------------------------
                             I Still Ain't Over You - Augustana
-------------------------------------------------------------------------------
Tabbed by: Colton
E-mail: colton.wheeler@gmail.com

Tuning: Standard, Capo 1st Fret

        1 & 2  &  3 & 4  &      1 & 2 &  3 & 4 &             
E|---------------------------|---------------------------------|
B|-(3)-/5-5-5-3/-1-1-1-------|----1----------------------------|
G|-----------------------0---|-h2---2-0----0-------------------|
D|---------------------------|-----------2---------------------|
A|---------------------------|---------------------------------|
E|---------------------------|---------------------------------|

        1 & 2  &  3 & 4  &         1  &  2 &  3 & 4 &             
E|---------------------------|---------------------------------|
B|-(3)-/5-5-5-3/-1-1-1-------|-------(3)/5p3--1----------------|
G|-----------------------0---|-(0)h2---------------------------|
D|---------------------------|---------------------------------|
A|---------------------------|---------------------------------|
E|---------------------------|---------------------------------|


************************************

| /   slide up
| \   slide down
| h   hammer-on
| p   pull-off
| ~   vibrato
| +   harmonic
| x   Mute note
| b   Bend
| pb  Pre-bend
| br  Bend release
| pbr Pre-bend release
| brb Bend release bend

************************************
Tap to rate this tab
 
# A B C D E F G H I J K L M N O P Q R S T U V W X Y Z