Song name
# A B C D E F G H I J K L M N O P Q R S T U V W X Y Z

Augustana - Alive tab

I'm fairly sure this is correct.

For the intro and the verse you're just strumming the same part
INTRO:

e----------------------------------|
B----------------------------------|
G---x--------x--x-----x------------|
D---4-(hold)-5--4-----4--(hold)----|
A---5--------5--5-----5------------|
E---5--------5--5-----7------------|

Repeat that until  "yeah this ones for you," which is
...for you...........and everything you do.............every time you said this was forever
e------------------------------------------------------------|
B---x-------------------------x------------------------------|
G---4-------------------------4----------------------x-------|
D---5-------------------------5----------------------5-------|
A---5-------------------------7----------------------7-------|
E----------------------------------------------------7-------|

Repeat

Chorus
...can feel it right now.......just where I wanna be.....I reach out.......you're 
right in front of me
e------------------------------------------------------------|
B----x----------------x--------------------------------------|
G----4----------------7------------------x----------------x--|
D----5----------------7------------------7----------------7--|
A----5----------------5------------------7----------------7--|
E----------------------------------------5----------------5--|

Repeat until the intro part comes in again with the "ooo's"

The only other part you need is
..........and i'm just loving you babe with everything that I got....
e----------------------------------------------------|
B------------------------x---------------------------|
G--x---------------------4----------------------x----|
D--4---------------------5----------------------4----|
A--5---------------------5----------------------5----|
E--5--------------------------------------------5----|

Hope it works out for you!
Tap to rate this tab
# A B C D E F G H I J K L M N O P Q R S T U V W X Y Z