Song name
# A B C D E F G H I J K L M N O P Q R S T U V W X Y Z

Augustana - Found My Place tab

-------------------------------------------------------------------------------
			     Found My Place - Augustana
-------------------------------------------------------------------------------
Tabbed by: Guitarchitect
Email: bmcverry@gmail.com

Tuning: E A D G B e

PLEASE READ BEFORE PLAYING!!!

I tabbed this in the form of picking, but actually if you listen to the song you know
that the guitarist from Augustana is actually hitting multiple strings. I tabbed it
this way so you guys can get the motion down of the picking style.


Intro
e|------------------------------------------------------------------|
B|------3------------3------------3------------3------------3-------|
G|----0---0---0----0---0---0----0---0---0----0---0---0----0---0---0-|
D|--4-------4----2-------2------------0------------0------------0---|
A|----------------------------2------------0------------------------|
E|------------------------------------------------------3-----------|

e|-----------------------------2-0----|
B|------3------------3---------3-3-3--|
G|----0---0---0----0---0---0-------0--|
D|----------0------------0------------|
A|------------------------------------|
E|--3------------3--------------------|


e|------------------------------------------------------------------|
B|------3------------3------------3------------3------------3-------|
G|----0---0---0----0---0---0----0---0---0----0---0---0----0---0---0-|
D|--4-------4----2-------2------------0------------0------------0---|
A|----------------------------2------------0------------------------|
E|------------------------------------------------------3-----------|

e|-----------------------------2-0-----------------2-0-----|
B|------3------------3---------3-3-3------3--------3-3-3---|
G|----0---0---0----0---0---0-------0----0---0---0------0---|
D|----------0------------0--------------------0------------|
A|---------------------------------------------------------|
E|--3------------3--------------------3--------------------|

Verse
e|------------------------------------------------------------------|
B|------3------------3------------3------------3------------3-------|
G|----0---0---0----0---0---0----0---0---0----0---0---0----0---0---0-|
D|--4-------4----2-------2------------0------------0------------0---|
A|----------------------------2------------0------------------------|
E|------------------------------------------------------3-----------|

e|------------------------------------------|
B|------3------------3------------3---------|
G|----0---0---0----0---0---0----0---0---0---| X 2
D|----------0------------0------------0-----|
A|------------------------------------------|
E|--3------------3------------3-------------|

Bridge
e|-------------------------------------------------------------------------------|
B|------3------------3-------------------------3------------3--------------------|
G|----0---0---0----0---0---0--0--------------0---0---0----0---0---0--------------|
D|--4-------4----2-------2----0-Let-Ring---4-------4----2-------2----0-----------|
A|----------------------------2--------------------------------------2--Let-Ring-|
E|-------------------------------------------------------------------3-----------|


Chorus
e|-------------------------------------------------|
B|---------------3------------3------------3-------|
G|-------------0---0---0----0---0---0----0---0---0-|
D|--0--2--0----------0------------0------------0---|
A|--2--0--2----------------------------------------|
E|--------3--3------------3------------3-----------|

Found my place....


Listen to song for order, pretty self explanatory. Good song by a new great band. Enjoy.


| /  slide up
| \  slide down
| h  hammer-on
| p  pull-off
| ~  vibrato
| +  harmonic
| x  Mute note
===============================================================================
Tap to rate this tab
 
# A B C D E F G H I J K L M N O P Q R S T U V W X Y Z