Song name
# A B C D E F G H I J K L M N O P Q R S T U V W X Y Z

Augustana - Brace tab

Capo Fret Two.
Standard Tuning.
INTRO/VERSE
e|---------------------------------------------------------------------------|
B|---1------1------1-------0-1-----------------------------------------------|
G|--0-0----0-0----0-0--0-0----0----------------------------------------------|
D|-0------0----2-2---2---------2---------------------------------------------|
A|0----0-2----2-----------------0--------------------------------------------|
E|---------------------------------------------------------------------------| Play this six times

CHORUS
e|-3-----------------------------------0-------------------------------------|
B|-0--------------1-3-0----------------1-------------1-0---------------------|
G|-0-----------------------------------0----------------0--------------------|
D|-0---Let ring------------------------2---Let ring--------------------------|
A|-2-----------------------------------3-------------------------------------|
E|-3-----------------------------------x-------------------------------------|Play this twice

Repeat verse. x6 with this riff and other small ones over verse.

e|--3-7-8-7-3----------------------------------------------------------------|
B|---------------------------------------------------------------------------|
G|---------------------------------------------------------------------------|
D|---------------------------------------------------------------------------|
A|---------------------------------------------------------------------------|
E|---------------------------------------------------------------------------|

CHORUS

VERSE

Build up C and G

e|-------0-----3-------------------------------------------------------------|
B|-------1-----0-------------------------------------------------------------|
G|-------0-----0-------------------------------------------------------------|
D|-------2-----0-------------------------------------------------------------|
A|-------3-----2-------------------------------------------------------------|
E|-------x-----3-------------------------------------------------------------|

SOLO
Repeat chords for build up with strum x8 each
e|---------------------------------------------------------------------------|
B|---------------------------------------------------------------------------|
G|---------------------------------------9-9-9-10-10-10-12-12-12-12-12-12----|
D|-----10-10-10-10-9-9-12-12-12-12-10-10-------------------------------------|
A|---------------------------------------------------------------------------|
E|---------------------------------------------------------------------------|

e|---------------------------------------------------------------------------|
B|---------------------------------------------------------------------------|
G|-------------------------------------5/7-7-7/9-9-9/10-10-10-10/12-12-12----|
D|-----12-12-12-12-10-10-9-9-9-9-10-10---------------------------------------|
A|---------------------------------------------------------------------------|
E|---------------------------------------------------------------------------|

e|---------------------------------------------------------------------------|
B|---------------------------------------------------------------------------|
G|---------------------------------------------------------------------------|
D|---------------------------------------------------------------------------|
A|---------------------------------------------------------------------------|
E|---------------------------------------------------------------------------|

e|---------------------------------------------------------------------------|
B|---------------------------------------------------------------------------|
G|---------------------------------------------------------------------------|
D|---------------------------------------------------------------------------|
A|---------------------------------------------------------------------------|
E|---------------------------------------------------------------------------|


| /  slide up
| \  slide down
| h  hammer-on
| p  pull-off
| ~  vibrato
| +  harmonic
| x  Mute note
===============================================================================
Tap to rate this tab
 
# A B C D E F G H I J K L M N O P Q R S T U V W X Y Z