Augustin Barrios Mangore - Danza Guarani tab

E-|---Song:-Danza-Guarani--------------------------|
A-|---Composer:-Barrios-Augustin-Mangore-----------|
D-|---Transcription-by:Christian Liang-------------|
G-|---E-Mail:christian.liang@gmail.com-------------|   
B-|---http://www.chrisliang.com--------------------|
E-|---Enjoy!---------------------------------------|

==========================================================================
                Danza Guarani by Barrios Augustin Mangore
==========================================================================

Part 1
[1]                                 II...
E|------------------||-------------------|-------------------|
B|------------------||-------3---3--2h3--|------3---3--------|
G|------------2p-0--||*------4---4--2h4--|------4---4--2h0---|
D|------------------||*---4----4---------|--------4----------|
A|------------------||--------------0====|===----------0=====|
D|------------------||----0=========-----|---0=========------|
 
L             1           3  2 3 2  1 2         2 3 2  1
                             4   4  1 3         4   4

R             i           i  m p m  m           m p m  m
                          p  i   i  i        p  i   i  p
                                    p           

[4]            II......................................
E|-------------------|-------------------|-------------------|
B|------3---3--2h3---|----2-----2--------|------2---2--0h2---|
G|------4---4--2h4---|----2-----2--------|------2---2--0h2---|
D|---4----4----2-----|-------2------5p4--|---2----2----------|
A|===----------------|----0========-0====|==-0========-0====-|
D|---0==========-----|-------------------|-------------------|

L    3  4 3 4  1 2        1  1  1   4 3      1  1 1 1    1
        2   2  1 3        1     1               1   1    1
               1

R    i  m p m  m          m  p  m   i        i  m p m  m  
     p  i   i  i          i     i   p        p  i   i  i
               p          p                            p
                                          ___________________
[7]                                      |1.

E|-------------------|-------------------|------------------||
B|----2h3p2---2--0-0-|-----------0--2----|--------3---------||
G|----2h4p2---2--0-0-|-------2---0--0----|-------------2p0-*||
D|----------2--------|-------4-----------|--------4--------*||
A|--0===========-0===|====----------0====|===----------0===-||
D|-------------------|----4----5---------|---0======4-------||
                                          
L     1 2 1 1 1           3  1 3    1             2 3  1
      1 3 1   1              4                    4

R   p m     p m  m m      p  m p m  m        p    m p  i
      i       i  i i         i   i  i             i    p
                 p                  p

     
[10]
  ___________________
 |2.

E|----------------14-|
B|----------------15-|
G|------2------------|
D|------4------------|
A|-----------0=======|
D|---0====4----------|

L       1 3        2
        4          3

R    p  m p  p     m
        i          i

                   
Part 2        

[11]

E-14-14-14-14-12---12--|--10--10-10-9------9--|--7--7-7-5----------5-|
B-15-15-15-15-14---14--|--12--12-12-10-----10-|--8--8-8-7----------7-|
G-14-------------------|----------------------|----------------------|
D-0--------------------|--0==============-----|--0==============-----|
A-0--------------0=====|==---------------0====|==---------------6====|
D-0--------------------|----------------------|----------------------|

L 2            1   1      1         1      1     1      1       2  1
  3            3   3      3         2      2     2      3          3
  1

R *  m         m p m      m         m      m     m      m       p  m
     i         i   i      i         i      i     i      i          i
                          p                      p
  * strum
 
[14]                        
                              
E------------------12--|--12-12-12-12-10----7-|--9---9--9--7-------7-|
B-----8------------14--|--14-14-14-14-12----8-|--10--10-10-8-------8-|
G-----9--------0======-|-----------------0====|==--------------------|
D-----------7----------|----------------------|----------------------|
A--7====-7-------------|--0==============-----|--0==============7====|
D----------------------|----------------------|----------------------|

L  1  2  1  1      1      1           1     1    1         1    1  1
      3            3      3           3     2    2         2       2

R  p  m  p  p  p   m      m           m  p  m    m         m    p  m
      i            i      i           i     i    i         i       i
                          p                      p
             
[17]                         VII..........

E--5--5-5-5---3-----3--|-------------------10-|
B--7--7-7-7---5-----5--|-----7----------------|
G----------------------|-----7----------------|
D----------------------|--0======-------------|
A--0=============4=====|==-------9-----<12>---|
D----------------------|----------------------|

L  1          1  2  1        1   3      4  1
   3          3     3        1

R  m          m  p  m    p   m   p      p  m  
   i          i     i        i       

Part 3

[19]
                                                                      
E||--10-14-12-10-9-12-10-9-|--7-10-9-7----9--7-------|
B||------------------------|-----------10---------10-|
G||*-----------------------|-------------------------|
D||*-0===============------|--0================------|
A||-------------------0====|=------------------0=====|
D||------------------------|-------------------------|

L    1  4  3  1  1 4  2  1    1  4 3 1 4  3  1    4

R    i  m  i  m  i m  i  m    i  m i m i  m  i p  i  


[21]                 VI...... VII.......
E|------7------------------|----------------------9--|
B|---8---10-8-7-10---8--7--|-----8-------------------|
G|-------------------------|-----9--------0=========-|
D|---0===============------|-----------7-------------|
A|==-----------------6=====|=-7====-7----------------|
D|-------------------------|-------------------------|

L    2  1 4 2 1 4    3  1     1  2  1  1          1
                     1           3 

R    i  m i m i m    m  i     p  m  p  p  p       m   
                                 i

[23]                 VII4.............................

E|--9-12-10-9-7-10---9--7--|------9-7-------7--------|
B|-------------------------|--10-----10--8----10--8--|
G|-------------------------|-------------------------|
D|-------------------7=====|==----------------7======|
A|--0===============-------|--0===============-------|
D|-------------------------|-------------------------|
  
L   1  4  2 1 1 4    3  1     4   3 1 4  2 1  4   2 
                     1

R   i  m  i m i m    i  m     i   m i m  i m  i   m  
    p                p        p               p

          
                            ________________________
[25]...........            |1.

E|---------------0--3-2-0--|--------------------10--||
B|--7--10--8--7------------|----3-------------------||
G|-------------------------|-----------------------*||
D|-------------------------|----4------------------*||
A|--0==============-0======|----------0=============||
D|-------------------------|-0----4-----------------||

L   1  4   2  1     3 2         2 3              1
                                4

R   i  m   i  m  i  m i m    p  m p   p          m
                                i

[27]
  ________________________  
 |2.                        CODA
                                 II.................
E|------------------------||------------------------||
G|-----3------------------||--3--2--3==============-||
B|------------------2p-0-*||-----2--2==============-||
D|-----4-----------------*||--0--2--4==============-||
A|------------------0=====||-----0--0==============-||
E|--0------4--------------||------------------------||

L      2   4        1         2  1  2
       4                         1  1
                                 1  3

R   p  m   p        i         a  a  a
       i            p         p  m  m
                                 i  i
                                 p  p



======
Legend
======

Left
p = pull off
h = hammer on
/ = slide
= = suspend/hold Note
II2 = Barre at fret 2 bottom 2 strings
<12> harmonic

Right
p = pulgar = thumb
i = indice = index
m = medio = middle
a = anular = ring






Tap to rate this tab
 
# A B C D E F G H I J K L M N O P Q R S T U V W X Y Z