Song name
# A B C D E F G H I J K L M N O P Q R S T U V W X Y Z

Auktsyon - Toska tab

-----------------------------------------------------------------
Toska - Auktsyon
-----------------------------------------------------------------
Tabbed by: kumran
Email: obeythedomo@gmail.com

Tuning: EADGBe



Verse:
                                    

e|---|---x--x--5--5--8--5--7--7--0--0---|------------------------|
B|---|---1--3--5--6--6--6--8--8--0--0---|------------------------|
G|---|*--2--4--5--5--5--5--7--7--0--0--*|------------------------|
D|---|*--3--5--x--x--x--7--9--9--0--0--*|------------------------|
A|---|---x--x--x--x--x--5--7--7--0--0---|------------------------|
E|---|---x--x--x--x--x--x--x--x--0--0---|------------------------|


Chorus:


                        A#   Am   F    C    Fmaj7
e|---x--x--5--5--8--   -6-  -0-  -1-  -0-  -0-   ----------------|   
B|---1--3--5--6--6--   -6-  -1-  -1-  -1-  -1-   ----------------|
G|---2--4--5--5--5--   -7-  -2-  -2-  -0-  -2-   ----------------|
D|---3--5--x--x--x--   -8-  -2-  -3-  -2-  -3-   ----------------|
A|---x--x--x--x--x--   -8-  -0-  -3-  -3-  -0-   ----------------|
E|---x--x--x--x--x--   -6-  -0-  -1-  -0-  -x-   ----------------|
Tap to rate this tab
 
# A B C D E F G H I J K L M N O P Q R S T U V W X Y Z