Song name
# A B C D E F G H I J K L M N O P Q R S T U V W X Y Z

Auletta - Ein Engel Kein Knig tab

Soo.... :)
das ist nur das intro von ein engel kein könig, ist mir gerade aufgefallen, dass das so 
wird, als ich auf der gitarre rumgeklimpert hab :P
die spielen das zwar anders aber das hört sich ziemlich gleich an :)

Viele von euch kennen auletta warscheinlich nicht; die sind auch noch nicht so 
kommen grad erst so richtig in deutschland raus, müsst ihr euch aber unbedingt anhören, die sind 
:)
hier ist der link von der website: http://www.auletta.de/a/start
die haben auch einen myspace account: http://www.myspace.com/aulettaband


e|-40-40-40-40-4--4--4--4--40-40-40-40-4--4--4--4--|
B|--------------2--2--2--2--------------2--2--2--2-|
G|-------------------------------------------------|
D|-------------------------------------------------|
A|-------------------------------------------------|
E|-------------------------------------------------|

e|---23\2------23\2------23\2----2222222---|
B|-25-----52525-----52525-----525-------52-|
G|-----------------------------------------|
D|-----------------------------------------|
A|-----------------------------------------|
E|-----------------------------------------|
Tap to rate this tab
 
# A B C D E F G H I J K L M N O P Q R S T U V W X Y Z