Song name
# A B C D E F G H I J K L M N O P Q R S T U V W X Y Z

Aura Dione - Are You For Sale tab

Help us improve GuitareTab! Take a short survey!
    _____________________
   / Aura               /  
  / Are You For Sale   /  
 / Columbine (2008)   /  
/____________________/  

 Chords:
*Capo on 2nd fret
     Bm   C#m/B   D   F#m   G
e:---------------------0----1---:
B:---1------3-----1----0----1---:
G:---2------4-----0----0----2---:
D:---2------4-----2----2----3---:
A:---0------0-----3----2--------:
E:---------------------0--------:

 Main figure:
  Bm        C#m/B           Bm        C#m/B
|-------------------------|-----------------------0-|
|-------1---3-------3-----|-------1---3---------3---|
|-------2---4-----------4-|-------2---4-------0-----|
|-----2-----4-------------|-----2-----4-----4-------|
|-0---------------0-------|-0-----------------------|
|-------------------------|-------------------------|



 Intro: (play the main figure for the intro parts)
  12/8
||: Bm  C#m/B | Bm  C#m/B :||



 Verse:
                    6/8
| Bm | D  F#m | Bm | D |

| F#m | G  D | F#m |



 Intro


 Verse



 Dobro Solo (2x Intro)



 Bridge:
| G  D | F#m  Bm | G  D | F#m  Bm |

| G  D | F#m  Bm | G  D | F#m |



 Outro (2x Intro)



Jon Sebastian Frederiksen - 9th /May /09
Just mail me at Maitinin@gmail.com with questions, comments and corrections!
Related for Are You For Sale tab