Song name
# A B C D E F G H I J K L M N O P Q R S T U V W X Y Z

Aura Dione - Song For Sophie tab

-----------------------------------------------------------------------------
			     Song for Sophie - Aura Dione
-----------------------------------------------------------------------------
Tabbed by: Jan S.
Email:

Tuning: Standart
 Capo 3rd fret for Cd-Version
      4th fret for live version


Intro&Verse
e|--------------------------------------------------------------------------|
B|-5--------5------7-------7------8-------8------4-------4------------------|
G|---0--------0------0-------0------0-------0------2-------2----------------|
D|-----5--------5------7-------7------9-------9------4-------4--------------|
A|-7-----7---------5-----5--------------------------------------------------|
E|--------------------------------8-----8--------2-----2--------------------|

Pre-Chorus (first Guitar) 4 times
e|--------------------------------------------------------------------------|
B|-5-------5------5-------5------7-------7-----7------7---------------------|
G|---0-------0------0-------0------0-------0-----0------0-------------------|
D|-----5-------5------5-------5------7-------7-----7------7-----------------|
A|--------------------------------------------------------------------------|
E|-3-----3--------3-----3--------5-----5-------5-----5----------------------|

Pre-Chorus (second Guitar) 4 Times: C - D

Chorus: G - D - C - D

Last Chorus: You would have to play that another way, but it sounds nearly 
the same to play:
e - D - C (- D)
Tap to rate this tab
# A B C D E F G H I J K L M N O P Q R S T U V W X Y Z