Aura Dione - Picture Of The Moon tab

-------------------------------------------------------------------------------
picture of the moon, Aura Dione
-------------------------------------------------------------------------------
Tabbed by: Anne L.      holly blue

Capo on 3

e|---------------------------------------------------------------------------|
B|------------3-------------3-------------------------------------3----------|
G|----------0---0---------0---0--------------0----------0-------0---0--------|
D|--------2-------------0---------------0--2-------0--2----------------------|
A|------------------------------------------------------------3--------------|
E|---------------------------------------------------------------------------|



tanks :)
Tap to rate this tab
 
# A B C D E F G H I J K L M N O P Q R S T U V W X Y Z