Aura Dione - Song For Sophie tab

Aura Dione - Song For Sophie

Intro:

E------0----------2----------3----------2---------!
H------------0----------0----------0----------0---!
G----------0----------0----------0----------2-----!
D-----------------0-0-----0-----------------------!
A----------------------------3-3-----3--2-2-----2-!
E------0-0-----0----------------------------------!

Vers: 4x

E------0----------2----------3----------2---------!
H------------0----------0----------0----------0---!
G----------0----------0----------0----------2-----!
D-----------------0-0-----0-----------------------!
A----------------------------3-3-----3--2-2-----2-!
E------0-0-----0----------------------------------!

Pro-Chorus: 4x

E-----------------3-------------------------2-----------!
H-----1-----1-----------1-------3-----3-----------3-----!
G---------0-----0-----0-----0-------2-----2-----2-----2-!
D-------------------------------0-0-----0---0-0-----0---!
A-----3-3-----3---3-3-----3-----------------------------!
E-------------------------------------------------------!


Chorus: 4x

E--------3-------------2-------------3-------------2-------!
H----------3---3---------3---3---------3---3---------3---3-!
G------0-----0-------2-----2-------0-----0-------2-----2---!
D------------------0---------------------------0-----------!
A--------------------------------3-------------------------!
E----3-----------------------------------------------------!
Tap to rate this tab
 
# A B C D E F G H I J K L M N O P Q R S T U V W X Y Z