Song name
# A B C D E F G H I J K L M N O P Q R S T U V W X Y Z

Aura Noir - Black Metal Jaw tab

Aura Noir - Black Metal Jaw
as heard in the album The Merciless

transcribed for guitar by Panos "Lhorkan" M. (alexpakis@yahoo.com) October 2008

The Merciless is an excellent album with sadly no tablatures available on the internet.
These are all the riffs played in Black Metal Jaw, and since it has no solos in it,
it's easy as shit and fucking awesome to play.

The tab is pretty straightforward. If you are not deaf, you can easily hear when the 
change,
so I won't bother writing down how many times to play each riff or in what order. If you happen
to have trouble, just send me an e-mail and I'll try to clarify any mistakes, or answer 
questions
that you might have. Tuned standard (EADGBe)

HADES RISE!!!!
++++++++++++++++++++++++++++++++++++++++++++++++++++++++++++++++++++++++++++++++++++++++++++++++

    riff 1

E||-----------------------|----------------------|----------------------|----------------------|
B||-----------------------|----------------------|----------------------|----------------------|
G||-----------------------|----------------------|----------------------|----------------------|
D||---------7S-9----8S-7--|------7S-9----8S-7----|------7S-9----8S-7----|------7S-9----8S-7----|
A||---------5S-7----6S-5--|------5S-7----6S-5----|------5S-7----6S-5----|------5S-7----6S-5----|
E||--0--------------------|--0-------------------|--0-------------------|--0-------------------|


  riff 2

|-------------------|-----------------|-----------------|-----------------|
|-------------------|-----------------|-----------------|-----------------|
|-------------------|-----------------|-----------------|-----------------|
|-------------------|-----------------|-----------------|-----------------|
|--5------8----4----|--5----8----4----|--5----8----4----|--5----8----4----|
|--3------6----2----|--3----6----2----|--3----6----2----|--3----6----2----|

riff 2 ending 2

----------------------------|-----------------|-----------------|-----------------|
----------------------------|-----------------|-----------------|-----------------|
----------------------------|-----------------|-----------------|-----------------|
----------------------------|-----------------|-----------------|-----------------|
--5---------------8----4----|--5----8----4----|--5----8----4----|--9----8----4----|
--3---------------6----2----|--3----6----2----|--3----6----2----|--7----6----2----|

chorus riff

|--------------------------|
|--------------------------|
|--------------------------|
|--------------------------|
|--3---3---3---3---3---3---|
|--1---1---1---1---1---1---|


(chorus riff continuation)                              BLACK METAL JAWWWWWWW
--------------------------|-----------------------|--------------------------|
--------------------------|-----------------------|--------------------------|
--------------------------|-----------------------|--------------------------|
--------------------------|-----------------------|--------------------------|
--2---2---2---6---6---6---|--5---6---4------------|--4---5---3---------------|
--0---0---0---4---4---4---|--3---4---2------------|--2---3---1---------------|


  outro                                                                     let ring
------------------|-----------------|-----------------|------------------|-------------------||
------------------|-----------------|-----------------|------------------|-------------------||
------------------|-----------------|-----------------|------------------|-------------------||
------------------|-----------------|-----------------|------------------|-------------------||
--5-----8----4----|--5----8----4----|--5----8----4----|--5----8----4--4--|--4----------------||
--3-----6----2----|--3----6----2----|--3----6----2----|--3----6----2--2--|--2----------------||
Tap to rate this tab
 
# A B C D E F G H I J K L M N O P Q R S T U V W X Y Z