Song name
# A B C D E F G H I J K L M N O P Q R S T U V W X Y Z

Aura Noir - Iron Night Torment Storm tab

Band: Aura Noir
Song: Iron Night/Torment Storm
Album: Hades Rise

Transcribed to guitar tablature by Panos "Lhorkan" M. (alexpakis@yahoo.com)

Goddamn! people should start uploading more Aura Noir tabs. These songs
are fucking sick and awesome to play.

Anyway, this is standard tuned (EADGBe).
I've written down every single riff played in this song, and above it the 
time in which they appear for the first time. It is very easy to hear the 
changes and which riff is played. 

Enjoy!
HADES RISE!


  (00:00)                                                         x4
e||-------------------------------------|---------------------------||
B||-------------------------------------|---------------------------||
G||-------------------------------------|---------------------------||
D||---5-5-3-----------------------------|--------2-----4------------||
A||---5-5-3-----------------------------|--5-5-3-0-3-5-2-4-6--------||
E||---3-3-1---1-1-1-1-1-1-1-1-0-1-1-1-1-|--3-3-1---1-3---2-4--4-4-4-||
              . . . . . . . . . . . . .                       . . .

riff 2 (00:24)
e||-----------------------------------------------------------------|
B||-----------------------------------------------------------------|
G||-----------------------------------------------------------------|
D||--3-3-3-------------------------3-3-----6-6-6-6---3--------------|
A||--------2-2-2---------------------------------------2------------|
E||--------------4-4-4-4-4-4---4-4-----4-4---------4-----4-4-4-4-4--|


e||------------------------------------------------------------------||
B||------------------------------------------------------------------||
G||------------------------------------------------------------------||
D||--3-3-3--------------------------------------------------------4b-||
A||--------2-2-2----------------2-2------2-2------2-2-------------2b-||
E||--------------4-4-4-4-4-4--------3-3------1-1------0-0-0-0-0-0----||


riff 3 (01:30)
e||----------------------------------------------------------||
B||----------------------------------------------------------||
G||*-------------------------------------------------------*-||
D||----------------------------------------------------------||
A||*-3--5-6--------------------------3tr4--6tr7--------3-3-*-||
E||--1--3-4---4-4-4-4-4-4-4-4--3tr4--------------3tr4--1-1---||


  (02:25)                                                              x3
e||----------------------------------------------------------------------|
B||----------------------------------------------------------------------|
G||----------------------------------------------------------------------|
D||--5-5-5-5-5-5-5-5-5-5------5-5-5-6-6-6-9-9-9-9-9----5-5--6-5-6-6-6-6--|
A||----------------------------------------------------------------------|
E||----------------------------------------------------------------------|


|--------------------------------||
|--------------------------------||
|--------------------------------||
|--------------------------------||
|-5-5-5-5--4-4-4-4---------------||
|------------------1-1-1-1-1-1-1-||


   second guitar playing under riff 3 at 4:08
    (i can't hear it well enough, but sounds something like this being repeated)
e||------------------------------------------------------------||
B||--19p16p15--19p16p15--19p16p15--19p16p15-19p16p15-19p16p15--||
G||------------------------------------------------------------||
D||------------------------------------------------------------||
A||------------------------------------------------------------||
E||------------------------------------------------------------||


Tap to rate this tab
 
# A B C D E F G H I J K L M N O P Q R S T U V W X Y Z