Song name
# A B C D E F G H I J K L M N O P Q R S T U V W X Y Z

Aurora - Iwas tab

iwas by aurora
simple tab by batang yagit
kapa2x lang to ok naman ung tuunog,
tinugtog na namin to eh hehe
di ko na nilagay ung ibang effects
kakapagod gumawa ng tab eh
kakatamad hehe


nice ng song na to! natamaan ako hekhek!


intro:

------------||
--5/4-------||
------8/6-4-||(2x)
------------||
------------||
------------||

--------------|
--5/4----7----|
-------8------|
--------------|
--------------|
--------------|

------------||
--5/4-------||
------8/6-4-||(2x)
------------||
------------||
------------||

--------------|
--/12---------|
------11-11---|
--------------|
--------------|
--------------|

verse1:
g#m-E B

madilim ang langit
sa twing ika'y iniisip
mga pag-asang nasira
wala nang tiwala

woaah!!
(sabay intro)

verse2:
g#m-E-B

huminga ng malalim
parang nagsisisi
sa harap ng salamin
tinutuwid ang sarili

chorus:
B/Bb-g#m-F#-E

ang kung lagi lang tayong nasasaktan
iwasan nalang nating magtinginan
at kung di mo kayang tiisin
ang iyong nararamdaman
oo na, malaya kana

wooah!(2x)
(sabay intro)

verse3:
g#m-E-B

sumpaan natin
walang makakapigil
'wag na nating ayusin
nasa huli ang pagsisisi
(chorus 2x)

adlib:
B/Bb-g#m-F#-E

-----------|-----------|
-----------|-----------|
--10-9-6-4-|-10-9-6-4--|
-----------|-----------|
-----------|-----------|
-----------|-----------|

------------------------|
------------------------|
-/11-10-8-6-4-3-4-3-----|
--------------------4---|
------------------------|
------------------------|

------------|--------------|
-3-3h4/6--4-4|-3-3h4/6--4-4|
------------|--------------|
------------|--------------|
------------|--------------|
------------|--------------|

-------------|
-------------|
--3-4-3------|
-------------|
-------------|
-------------|

---------------------------------|
------------5-5-/6-6--5-4-5/7----|
-----3-4-6-----------------------|
-4-6-----------------------------|
---------------------------------|
---------------------------------|

woaahh!
(sabay intro)
(chorus 2x)

malaya ka na
(malaya ka na)malaya ka na
(sabay intro ulit)


tapos........sana nagustuhan nyu tab na to...
Tap to rate this tab
# A B C D E F G H I J K L M N O P Q R S T U V W X Y Z