Song name
# A B C D E F G H I J K L M N O P Q R S T U V W X Y Z

Aurthohin - Anmone chords

Highlighted       Show chord diagrams
Anmone
Artist:Aurthohin
All Guitar Solo:Rafa
Album: Oshomapto-1
Tabbed By :  Tanvir Ahmed
(PC):means :Power Chords...Play the Power Chord where it says (PC)

Intro:
E-------------------------------------------------|
B-------------------------------------------------|
G---4--4--4---4---6---4---------------------------|
D-------------------------------------------------|
A-0-----------------------------------------------|
E-------------------------------------------------|
X(3)

At The Fourth Time

E---------------------------------------------------|
B---------------------------------------------------|
G-----6---4-----6--6---4----------------------------|
D---------------------------------------------------|
A--0----------0-------------------------------------|
E---------------------------------------------------|


D
Jokhon chaad ghumie pore
A G
Adhar akash ta k fele
A
Shudhu ami jege thaki tomar chobi buke niye
D
Jege thaki akasher taray
A G
Miliye jai shob jeno kothay
A
Jani ai raat sheshe Phirbe na tumi ar
(All Power Chords (PC))
D C# B G
Tobuo keno je ashe moner majhe tomar chobi
D C# B G
Kolpona te keno je tomar hashi shuni
D A
Megher deshe ki akono tumi
G
harao anmone
A
kobita ki lekho akono amay Bhebe
D A G
bristy name jokon tomer ai shorir e
amar chowa ki pao
A D
bristyr sathe anmoneeee 
Tap to rate this tab
# A B C D E F G H I J K L M N O P Q R S T U V W X Y Z