Guitaretab - guitar tabs
Song name
# A B C D E F G H I J K L M N O P Q R S T U V W X Y Z
Home / A / Auryn / Survive tab

Auryn - Survive tab

"Survive" -- Auryn
Tabbed by Kyle "Gumby"

Tune down 1/2 step

Verse 1

Guitar 1  (Clean)
||--0-----0-----0--------||--------||--------|
||----0-----2-----0------||--2--0--||--0--2--|
||-----------------------||--2--4--||--6--2--|
||------------------4----||--2--4--||--6--2--|
||--------------------2--||--0--2--||--4--0--|
||-----------------------||--------||--------|

Guitar 2  (Distortion)
                                    |-----|
                                    |-----|
                                    |-----|
                                    |-----|
                                    |--7--|
                                    |--5--|

=======================================================================
Chorus

Both Guitars  (Distortion)
|--------------------------|
|--------------------------|
|--xx-9-9--xx-2-2--xx-4-4--|
|--xx-9-9--xx-2-2--xx-4-4--|
|--xx-7-7--xx-0-0--xx-2-2--|
|--------------------------|

=======================================================================
Verse 2

Guitar 1  (Clean)
Play Verse 1

Guitar 2  (Clean)
||----------------------------------------------||
||----------------------------------------------||
||----9--------8-9-----------6-----------8------|| Then follow Verse 1
||------9----9-----9-----------7-----------9----||
||--7------7---------7-----7-----7-----9-----9--||
||-----------------------5-----------7----------||

=======================================================================
Bridge 1
[ Tab from: http://www.guitaretab.com/a/auryn/122656.html ]
Both Guitars  (Distortion)
||--------------------------||--------|
||--------------------------||--------|
||--9--7-----7--5--9--7--6--||--4--6--|
||--9--7--7--7--5--9--7--7--||--3--7--|
||--7--5--7--5--3--7--5--7--||--5--7--|
||--------5--------------5--||--3--5--|

=======================================================================
Verse 3

Guitar 1  (Clean)
"Sittin' at home, eatin' McDonald's..."
|--------|
|--0--2--|
|--6--2--|
|--6--2--|
|--4--0--|
|--------|

Guitar 2  (Clean)
Join in with Guitar 1 chords after "..supreme"

=======================================================================
Bridge 2

Guitar 1  (Distortion)
Play Bridge for a few measures, then play...
||-----------||--------|
||-----------||--------|
||--9--------||--4--6--|
||--9--9--7--||--3--7--|
||--7--9--7--||--5--7--|
||-----7--5--||--3--5--|

Guitar 2  (Distortion)
Play Bridge for a few measures, then play this when Guitar 1 starts
its second part...
|------|
|------|
|--/9--|
|---x--|
|--/7--|
|------|

=======================================================================
Verse 4

Both Guitars  (Distortion)
|--------|
|--0-----|
|--6-----|
|--6--7--|
|--4--7--|
|-----5--|

=======================================================================
#^(#)  .. Bend to note in ( )
#^(#)r .. Bend to note in ( ) and release to original note
h ....... Hammer on
p ....... Pull off
~ ....... Vibrato/hold note
( ) ..... Held only for a second or hardly heard due to
          feedback, other notes picked, etc.
/........ Slide up
\........ Slide down
Related for Survive tab