Song name
# A B C D E F G H I J K L M N O P Q R S T U V W X Y Z

Aus-rotten - Absent Minded tab

-------------------------------------------------------------------------------
Absent Minded - Aus-Rotten
The Roetten Agenda
-------------------------------------------------------------------------------
Tabbed by: axeslash
Email: holmzito@yahoo.com

Tuning: Standard

e|---------------------------------------------------------------------|
B|---------------------------------------------------------------------|
G|---------------------------------------------------------------------|
D|-8----------------8----------------8----------------8----------------|
A|-8----------------8----------------8----------------8----------------|
E|-6----------------6----------------6----------------6----------------|

e|------------------------------|
B|------------------------------|
G|------------------------------|
D|---------------9-9--9---------|
A|-8-8--8-8-8--8-7-7--7-8-9-9-9-|
E|-6-6--6-6-6--6--------6-7-7-7-| x8

e|-------------------------------------------------------|
B|-------------------------------------------------------|
G|-------------------------------------------------------|
D|-7-7--7-6-6--6-5-5--5-4-4--4-7-7--7-6-6--6-5-5--5-4-4--|
A|-5-5--5-4-4--4-3-3--3-2-2--2-5-5--5-4-4--4-3-3--3-2-2--|
E|-------------------------------------------------------|

e|-------------------------------------------------------------------------|
B|-10-10-10-10-10-10-10-10-9-9-9-9-9-9-9-9-8-8-8-8-8-8-8-8-7-7-7-7-7-7-7-7-|
G|--7--7--7--7--7--7--7--7-6-6-6-6-6-6-6-6-5-5-5-5-5-5-5-5-4-4-4-4-4-4-4-4-|
D|-------------------------------------------------------------------------|
A|-------------------------------------------------------------------------|
E|-------------------------------------------------------------------------|

e|--------------------------------------------------------|
B|-10-10-10-10-10-10-10-10-9-9-9-9-9-9-9-9----------------|
G|--7--7--7--7--7--7--7--7-6-6-6-6-6-6-6-6----------------|
D|-----------------------------------------5--7-----------|
A|-----------------------------------------3--5--8--------|
E|-----------------------------------------------6--------|

e|--------------------------------------------------|
B|--------------------------------------------------|
G|--------------------------------------------------|
D|----------9----------------------10^----10p8------|
A|-8--------7----8--9--8-8---8-8---------------10\--|
E|-6-------------6--7--6-6---6-6--------------------|

e|------------------------------|
B|------------------------------|
G|------------------------------|
D|---------------9-9--9---------|
A|-8-8--8-8-8--8-7-7--7-8-9-9-9-|
E|-6-6--6-6-6--6--------6-7-7-7-| x8

e|-------------------------------------------------------|
B|-------------------------------------------------------|
G|-------------------------------------------------------|
D|-7-7--7-6-6--6-5-5--5-4-4--4-7-7--7-6-6--6-5-5--5-4-4--|
A|-5-5--5-4-4--4-3-3--3-2-2--2-5-5--5-4-4--4-3-3--3-2-2--|
E|-------------------------------------------------------|

e|-------------------------------------------------------------------------|
B|-10-10-10-10-10-10-10-10-9-9-9-9-9-9-9-9-8-8-8-8-8-8-8-8-7-7-7-7-7-7-7-7-|
G|--7--7--7--7--7--7--7--7-6-6-6-6-6-6-6-6-5-5-5-5-5-5-5-5-4-4-4-4-4-4-4-4-|
D|-------------------------------------------------------------------------|
A|-------------------------------------------------------------------------|
E|-------------------------------------------------------------------------|

e|--------------------------------------------------------|
B|-10-10-10-10-10-10-10-10-9-9-9-9-9-9-9-9----------------|
G|--7--7--7--7--7--7--7--7-6-6-6-6-6-6-6-6----------------|
D|-----------------------------------------5--7-----------|
A|-----------------------------------------3--5--8--------|
E|-----------------------------------------------6--------|

e|---------------------------------------------------------------------|
B|---------------------------------------------------------------------|
G|---------------------------------------------------------------------|
D|-8----------------8----------------8----------------8----------------|
A|-8----------------8----------------8----------------8----------------|
E|-6----------------6----------------6----------------6----------------|

e|------------------------------|
B|------------------------------|
G|------------------------------|
D|---------------9-9--9---------|
A|-8-8--8-8-8--8-7-7--7-8-9-9-9-|
E|-6-6--6-6-6--6--------6-7-7-7-| x8

e|-------------------------------------------------------|
B|-------------------------------------------------------|
G|-------------------------------------------------------|
D|-7-7--7-6-6--6-5-5--5-4-4--4-7-7--7-6-6--6-5-5--5-4-4--|
A|-5-5--5-4-4--4-3-3--3-2-2--2-5-5--5-4-4--4-3-3--3-2-2--|
E|-------------------------------------------------------|

e|-------------------------------------------------------------------------|
B|-10-10-10-10-10-10-10-10-9-9-9-9-9-9-9-9-8-8-8-8-8-8-8-8-7-7-7-7-7-7-7-7-|
G|--7--7--7--7--7--7--7--7-6-6-6-6-6-6-6-6-5-5-5-5-5-5-5-5-4-4-4-4-4-4-4-4-|
D|-------------------------------------------------------------------------|
A|-------------------------------------------------------------------------|
E|-------------------------------------------------------------------------|

e|---------------------------------------------------------------|
B|-10-10-10-10-10-10-10-10-9-9-9-9-9-9-9-9-----------------------|
G|--7--7--7--7--7--7--7--7-6-6-6-6-6-6-6-6-----------------------|
D|-----------------------------------------5--7------------------|
A|-----------------------------------------3--5--8------------8--|
E|-----------------------------------------------6------------6--|


| ^  half-step bend
| /  slide up
| \  slide down
| h  hammer-on
| p  pull-off
| ~  vibrato
| +  harmonic
| x  Mute note
===============================================================================
Tap to rate this tab
# A B C D E F G H I J K L M N O P Q R S T U V W X Y Z