Song name
# A B C D E F G H I J K L M N O P Q R S T U V W X Y Z

Aus-rotten - Vietnam Is Back tab

Artist: Aus Rotten
Song: Vietnam Is Back

Drop D tuning
Intro
e------------------------|
b------------------------|
g------------------------|
d--------(feed-----------|
a-3-3-3---back)-3----3b--|
d-5-5-5---------5----5b--|

Intro pt. 2

e---------------------------------------|
b---------------------------------------|
g---------------------------------------| 2X and hold last note at 2 time
d-1-1-1-1-4-4-4-4-1-1-1-1-4-4-3-3-------|
a---------------------------------------|
d---------------------------------------|
Main riff (play during verse)
e--------------------------------|
b--------------------------------|
g--------------------------------|
d-1-1--1-4--4-4--1-1--1--4-4-3-3-|
a-1-1--1-4--4-4--1-1--1--4-4-3-3-|
d-1-1--1-4--4-4--1-1--1--4-4-3-3-|

Chorus
e---------------------|
b---------------------|
g---------------------|
d---------------------|
a-3-3--3--1-1--1------| repeat hold last chord last time
d-3-3--3--1-1--1------|

Repeat verse and Chorus

Solo thingy

e---------------------------------------|
b---------------------------------------|
g----------------------------6b---------|
d-11111111-44444444-1111111-------------|
a---------------------------------------|
d---------------------------------------|

e---------------------------------------|
b---------------------------------------|
g---------------------------6b-6b-------|
d-11111111-44444444-1111111-------------|
a---------------------------------------|
d---------------------------------------|

e----------------------------------------|
b----------------------------------------|
g----------------------------------------|
d-11111111-44444444-11111111-44443333----|
a----------------------------------------|
d----------------------------------------|
                              Pickslide
e---------------------------------------|
b---------------------------------------|
g--------------------6b-6b-6b-----------|
d-11111111-44444444---------------------|
a-----------------------------X\--------|
d-----------------------------X\--------|

Repeat verse
chorus

 chord before drum part
e---
b---
g---
d-1-    hold chord
a-1-
d-1-

Repeat Chorus


and that's it
Tap to rate this tab
 
# A B C D E F G H I J K L M N O P Q R S T U V W X Y Z