Song name
# A B C D E F G H I J K L M N O P Q R S T U V W X Y Z

Aus-rotten - Batf tab

one of my favorites songs from aus rotten , a true hardcore crust punk
band.

intro

|---------------------------------------------|
|---------------------------------------------|
|---------------------------------------------|
|--66-----------------------------------------|
|--66-----------------------------------------|
|--44-----------------------------------------|

bass ''solo''

verse
part 1
|---------------------------------------------|
|---------------------------------------------|
|----------666666665555555544444444-----------|
|--66666666666666665555555544444444-x2--------|
|--66666666444444443333333322222222-----------|
|--44444444-----------------------------------|

 part2
  pm..............................
|---------------------------------------------|
|---------------------------------------------|
|----------666666665555555544444444-----------|
|--66666666666666665555555544444444-x2--------|
|--66666666444444443333333322222222-----------|
|--44444444-----------------------------------|

chorus:
|---------------------------------------------|
|---------------------------------------------|
|-----6-------------6-------------------------|
|--67-6----------67-6----x2-------------------|
|--67-4----------67-4-------------------------|
|--45------------45---------------------------|


verse

chorus

verse play only part 1 

bass only

ending
|-----------------------|
|-----------------------|
|-----6-----------------|
|--67-6-----------------|
|--67-4-----------------|
|--45-------------------|

Tap to rate this tab
 
# A B C D E F G H I J K L M N O P Q R S T U V W X Y Z