Guitaretab - guitar tabs
Song name
# A B C D E F G H I J K L M N O P Q R S T U V W X Y Z

Aus-rotten - System Works For Them tab

Intro (spoken part): 
|----------------------------------------------------------------|
|----------------------------------------------------------------|
|------------------3---------------------------------------------|
|--5---------------3-(play this occassionally)-------------------|
|--5-(a lot)-------1---------------------------------------------|
|--3-------------------------------------------------------------|
      
Verse
|----------------------------------------------------------------|
|----------------------------------------------------------------|
|-----------------------5--3-------------------------------------|
|--3-555--3-555--3-555--5--3-------------------------------------|
|--3-555--3-555--3-555--3--1-------------------------------------|
|--1-333--1-333--1-333-------------------------------------------|

Chorus
|------------------------|
|------------------------|
|------------------------|
|--5---------------------|
|--5--(a lot)------------|
|--3---------------------|
  

Solo
|----------------------------------------------|
|----------------------------------------------|
|-----------------------5-3--------------------|
|--5-777--5-777--5-777-------------------------|
|----------------------------------------------|
|----------------------------------------------| 
[ Tab from: http://www.guitaretab.com/a/aus-rotten/69554.html ]
Related for System Works For Them tab