Song name
# A B C D E F G H I J K L M N O P Q R S T U V W X Y Z

Aus-rotten - Have Another tab

-------------------------------------------------------------------------------
			    Have Another - Aus Rotten
-------------------------------------------------------------------------------
Tabbed by: Aaron321


Tuning: Standard

  Intro/Verse
e|------------------------------------------------------|
B|------------------------------------------------------|
G|-------------------5-5--5--8-8--8---------------------|
D|---7-7--7--7-7--7--5-5--5--8-8--8---------------------|
A|---7-7--7--7-7--7--3-3--3--6-6--6---------------------|
E|---5-5--5--5-5--5-------------------------------------|

  Chorus
e|------------------------------------------------------|
B|------------------------------------------------------|
G|------------------------------------------------------|
D|--7-7--7--7-7--7--2-2--2--5-4-5-----------------------|
A|--7-7--7--7-7--7--2-2--2--5-4-5-----------------------|
E|--5-5--5--5-5--5--0-0--0--3-2-3-----------------------|

  
Tap to rate this tab
# A B C D E F G H I J K L M N O P Q R S T U V W X Y Z