Song name
# A B C D E F G H I J K L M N O P Q R S T U V W X Y Z

Austin Gibbs - Cut Me Off tab

Cut Me Off (Acoustic) - Austin Gibbs

The strumming pattern is a little crazy for the acoustic version but once you get it, 
you'll get it. I watched this video for the acoustic version: 
The tabs are pretty easy, though.

    ******NOTE ON THE BRIDGE******
The way Gibbs orchestrates the bridge acoustically is different from the original track. 
set up the bridge how it is in the original track.  Listening to the original track may 
be a bad idea so you can get an idea for the bridge and the rest of the song.

RELATIVE TO CAPO.

    G      Cadd9      Asus     Em
--3-----3-----3-----3--|
--3-----3-----3-----3--|
--------------2--------|
--------2-----2-----2--|
--2-----3-----------2--|
--3--------------------|

---------------

Capo 3

Intro:

--33-3--33-3----------------33-3--33-3--------------|
--33-3--33-3---3--5--3--0---33-3--33-3---3--5--3--0-|
----------------------------------------------------|
----------------------------------------------------|
--22-2--22-2----------------22-2--22-2--------------|
--32-3--33-2----------------33-3--33-3--------------|


Verse 1:

Cadd9                                      Asus
            Tell me your coming home, someday

--33-3--33-3----------------33-3--33-3--------------|
--33-3--33-3---3--5--3--0---33-3--33-3---3--5--3--0-|
----------------------------------------------------|
----------------------------------------------------|
--22-2--22-2----------------22-2--22-2--------------|
--32-3--33-2----------------33-3--33-3--------------|

Cadd9                                       Asus
           Tell me your won't be back for a long time

--33-3--33-3----------------33-3--33-3--------------|
--33-3--33-3---3--5--3--0---33-3--33-3---3--5--3--0-|
----------------------------------------------------|
----------------------------------------------------|
--22-2--22-2----------------22-2--22-2--------------|
--32-3--33-2----------------33-3--33-3--------------|

Cadd9                                        Asus
          Tell me you'll break me up
                                        Cadd9
Tell me you'll cut me off
                                          Asus
Tell me you'll try to quit


Chorus:
                                            G
Tell me you never want to hear my voice again
                                       Cadd9
Because it might change you mind
                      Asus
Could I bring you back to me?
                Cadd9                    Cadd9
Could I bring you back to life?


Music Break:

--33-3--33-3----------------33-3--33-3--------------|
--33-3--33-3---3--5--3--0---33-3--33-3---3--5--3--0-|
----------------------------------------------------|
----------------------------------------------------|
--22-2--22-2----------------22-2--22-2--------------|
--32-3--33-2----------------33-3--33-3--------------|


Verse 2:

Cadd9                                      Asus
          Tell me you'll call me back tomorrow

--33-3--33-3----------------33-3--33-3--------------|
--33-3--33-3---3--5--3--0---33-3--33-3---3--5--3--0-|
----------------------------------------------------|
----------------------------------------------------|
--22-2--22-2----------------22-2--22-2--------------|
--32-3--33-2----------------33-3--33-3--------------|

Cadd9                                   Asus
          Tell me I'm not the one, oh, and I've never been

--33-3--33-3----------------33-3--33-3--------------|
--33-3--33-3---3--5--3--0---33-3--33-3---3--5--3--0-|
----------------------------------------------------|
----------------------------------------------------|
--22-2--22-2----------------22-2--22-2--------------|
--32-3--33-2----------------33-3--33-3--------------|

Cadd9                                    Asus
          Tell me i'm always wrong
                                     Cadd9
Tell me I wont forget it
                                         Asus
Tell me your falling quick


Chorus:
                                                               G
Tell me you never want to see my face again
                                                         Cadd9
Because it might change your mind
                                    Em
Could I bring you back to me?
                                   Cadd9            Cadd9
Could I bring you back to life?


Bridge:
G                                                      Cadd9
       When I fall, will I fall too hard?
G                                                      Cadd9
       When I fall, will I fall too hard?
G                                                      Cadd9
       When I fall, will I fall too hard?
G                                                      Cadd9
       When I fall, will I fall too hard?
G                                                      Cadd9
       When I fall, will I fall too hard?

Acapella:

       When I fall, will I fall too hard?

       When I fall, will I fall too hard?

Am I wasting all my breath? Am I wasting all my time?
           (When I fall,                           will I fall too hard?)

Am I wasting all my breath? Am I wasting all my time?
           (When I fall,                           will I fall too hard?)
G
Am I wasting all my breath? Am I wasting all my time?
           (When I fall,                           will I fall too hard?)
Cadd9
Am I wasting all my breath? Am I wasting all my time?
           (When I fall,                           will I fall too hard?)
G
Am I wasting all my breath? Am I wasting all my time?
           (When I fall,                           will I fall too hard?)
Cadd9
Am I wasting all my breath? Am I wasting all my time?
           (When I fall,                           will I fall too hard?)
G (let it ring)

Am I wasting all my breath? Am I wasting all my time?
           (When I fall,                           will I fall too hard?)


Am I wasting all my breath? Am I wasting all my time?
Tap to rate this tab
 
# A B C D E F G H I J K L M N O P Q R S T U V W X Y Z