Song name
# A B C D E F G H I J K L M N O P Q R S T U V W X Y Z

Austin Hartley-leonard - In My Sleep chords

Highlighted       Show chord diagrams
http://www.myspace.com/austinhl1 

Standard Tunning, Cap on 3rd fret.

This chord is only used once, but i can't find a name for it, so i'll just call it 
F#. But don't forget it looks like this instead of what UGT will make it.
e|---|---|---|
B|---|---|-X-|
G|---|---|---|\__ F#
D|---|---|---|/
A|---|---|---|
E|---|-X-|---|



Intro- Strum G chord "1,2,3,4" style 3 times and then play intro..
   G
e|-------------------------------------------------------------------------|
B|---------0--------1-0-----0--------1-0-----0--------------0--------------|
G|-0--------------------2-0--------------2-0----------2---2---0------------|
D|------------------------------------------------------0------------------|
A|---2-2-2---2-2-2--3---------2-2-2--3---------2-2-2--0---------2-2-2------|
E|-3-3-3-3-3-3-3-3----------3-3-3-3----------3-3-3-3----------3-3-3-3------|

e|----------------------------------|
B|----------------------------------|
G|----------------------------------|
D|----------------------------------|
A|---2-2-2----2-2-2-----------------|
E|-3-3-3-3--3-3-3-3--3(let ring)----|

Chords(played after intro)
G       C                  G
Sunday, dark has turned to grey
C                    G               D
The stars make their way, i raise my glass
    G    D  G     C           G
And part my lips, 10 too many deem
     C          G          D      G
The only time i see you is in my sleep.

G        C            G
Sunday, gettin' by my way
C                G     D
I think i'll be okay, for a while.
G D    G          C            G
I know you, were never mine to keep
      C                 G      D        G
but i know that i will see you in my sleep.

G  F#

    Em        C       G
But time, has been un-kind
    D       G        G
And kept me far from you.
    G      C        G
But i know you will be
C       G  D     G  
holdin' me in my sleep.

(Listen to the song for this timming, but i've put it onto 1234 counts)
G       C   G   C   G   D
1-2-3-4_1-2-3-4_1-2-3-4_1-2-3-4
G       C   G   C   G   D   G G(strike the two G's hard)
1-2-3-4_1-2-3-4_1-2-3-4_1-2-3-4

G          C       G
I've been, Hangin' on,
C        G
Scrapin' by, 
D
All my life.

    G       C        G
And i know, You will be,
C       G
Holdin' me,
D      G
In my sleep.

G          C       G
I've been, Hangin' on
C        G
Scrapin' by,
D
All my life

G
And i know i'll miss you
C
I'll always miss you
G                       D      G
But i know i'll see you in my sleep.


G~~~~~~~~~~~~~~~~~~~(let ring)
I know i'll miss you
C~~~~~~~~~~~~~~~~~~~
I'll always miss you
G~~~~~~~~~~~~~~~~~~~~~~ D~~~~ G~~~~~
but i know i'll see you in my sleep.
Tap to rate this tab
 
# A B C D E F G H I J K L M N O P Q R S T U V W X Y Z