Guitaretab - guitar tabs
Song name
# A B C D E F G H I J K L M N O P Q R S T U V W X Y Z

Austin Tv - Vol Al Cielo tab

e|--------------|--------------|
B|--------------|--------------|                   
G|-7--9-12--11-|-7--9--12--11-|
D|--------------|--------------|
A|--------------|--------------|
E|--------------|--------------|

e|-------------------|-------------------|
B|-12-10-15-12-13-10-|-12-10-15-12-13-10-|
G|-------------------|-------------------|
D|-------------------|-------------------|
A|-------------------|-------------------|
E|-------------------|-------------------|

e|-------------------|-------------------|
B|-------------------|-------------------|
G|-11-12-14-16-11-12-|-11-12-14-16-11-12-|
D|-------------------|-------------------|
A|-------------------|-------------------|
E|-------------------|-------------------|
   
[ Tab from: http://www.guitaretab.com/a/austin-tv/102259.html ]
e|-----5--3-3---------|----------------3----|
B|---3---3----3--------|-----8---------7-----|
G|-5-----------4-4-555-|---10---999---7------|
D|---------------------|-10----9-----7-------|
A|---------------------|---------------------|
E|---------------------|---------------------|
                       
 Sintetizador

e|-15-15-17-14-14--15-15-17-14-14-19------17---15-20----14-15-|
B|----------------------------------15-15----13-----13-13-----|
G|------------------------------------------------------------|
D|------------------------------------------------------------|
A|------------------------------------------------------------|
E|------------------------------------------------------------|
                          
 Hay que tocar varias veces cada quinta..

   C    A    B    G   F#    G   C
e|---|----|----|----|----|----|---|
B|---|----|----|----|----|----|---|
G|-5-|-14-|-16-|-12-|-11-|-12-|-5-|
D|-5-|-14-|-16-|-12-|-11-|-12-|-5-|
A|-3-|-12-|-14-|-10-|-9--|-10-|-3-|
E|---|----|----|----|----|----|---|
Related for Vol Al Cielo tab