Guitaretab - guitar tabs
Song name
# A B C D E F G H I J K L M N O P Q R S T U V W X Y Z

Austin Tv - Volo Al Cielo tab

TABBED: EDGARDO MARTINEZ SACHEZ
TUNNING: STANDAR
BAND: AUSTIN TV
SONG: VOLO AL CIELO 
ALBUM: FONTANA BELLA

  [INTRO] FIGURE THE TIME

e|------------------|------------------|
B|------------------|------------------|                   
G|-7~--9~-1~2--~11-|-7~--9~--12~--11~-|
D|------------------|------------------|
A|------------------|------------------|
E|------------------|------------------|

e|-------------------------|-------------------------|
B|-12~-10~-15~-12~-13~-10~-|-12~-10~-15~-12~-13~-10~-|
G|-------------------------|-------------------------|
D|-------------------------|-------------------------|
A|-------------------------|-------------------------|
E|-------------------------|-------------------------|

e|--------------------------|------------------------|
B|--------------------------|------------------------|
G|-11h12~-14~-16~-11~-11h12-|-11h12~-14~-------------|
D|--------------------------|-----------14~-16~-17~--|
A|--------------------------|------------------------|
E|--------------------------|------------------------|
   

e|-----5~3~--3~----------------5~-3~--3~-----------|
B|---3~---------3~------------3~---------3~---------|
G|-5~-------------4~-4-555-5~--------------4~-4-55--|
D|--------------------------------------------------|
A|--------------------------------------------------|
E|--------------------------------------------------|
                       

  [violin]
  
e|---------------------------3~-------------------------3~--|
B|--------8-8~-------------7----------8-8~------------7------|
G|----10----------999/7---7---------10-------999/7---7-------|
D|--10----------9--------7--------10--------9-------7--------|
A|-----------------------------------------------------------|
E|-----------------------------------------------------------|
 
 [SOLO]
[ Tab from: http://www.guitaretab.com/a/austin-tv/103183.html ]
e|-15-15-17-14-14--15-15-17-14-14-19~------17~-------------------|
B|-----------------------------------15-15-----12-12-13-13-12-12-|
G|---------------------------------------------------------------|
D|---------------------------------------------------------------|
A|---------------------------------------------------------------|
E|---------------------------------------------------------------|


e|-15-15-17-14-14--15-15-17-14-14-19~------17~-------------------|
B|-----------------------------------15-15-----12-12-13-13-12-12-|
G|---------------------------------------------------------------|
D|---------------------------------------------------------------|
A|---------------------------------------------------------------|
E|---------------------------------------------------------------|


e|-15~-15~-14~-14~--15~-15~-14~-14~---------------------------------|
B|----------------------------------15~-15~-12~-12~-13~-13~-12~-12~-|
G|------------------------------------------------------------------|
D|------------------------------------------------------------------|
A|------------------------------------------------------------------|
E|------------------------------------------------------------------|

e|-15~-15~-14~-14~--15~-15~-14~-14~---------------------------------|
B|----------------------------------15~-15~-12~-12~-13~-13~-12~-12~-|
G|------------------------------------------------------------------|
D|------------------------------------------------------------------|
A|------------------------------------------------------------------|
E|------------------------------------------------------------------|

e|-15~-15~-14~-14~--15~-15~-14~-14~--15~-15~-14~-14~--15~-15~-14~-14~-|
B|--------------------------------------------------------------------|
G|--------------------------------------------------------------------|
D|--------------------------------------------------------------------|
A|--------------------------------------------------------------------|
E|--------------------------------------------------------------------|

  [OUTRO]
   ESCUCHA LA CANCION PARA LOS CAMBIOS DE NOTA 
  (SE REPITE ESTE PATRON 4 O 5 VECES TU DECIDES CUANDO ACABA)
   
  CHECK SONG FOR STRUMMING
  (THIS CHORDS REPEAT ABOUT 4 OR 5 TIMES YOU CHOOSE WHEN STOPS THE SONG)

e|-------------------------|
B|-------------------------|
G|-5-/-14-/-16-/-12-/-11---|
D|-x-/-xx-/-xx-/-xx-/-xx---|
A|-3-/-12-/-14-/-10-/-9----|
E|-------------------------|

Related for Volo Al Cielo tab