Song name
# A B C D E F G H I J K L M N O P Q R S T U V W X Y Z

Austin Tv - Flores Sobre Las Piedras tab

Saludos


Les dejo el inicio de esta cancịn de Austin Tv
algo melanc̣lica por cierto.
Suena bien

Los instrumentos a usar son guitarra y piano

-EN TUS PENSAMIENTOS DISTINGO UN VALLE DE LÀGRIMAS
QUE DESAPAREZE PERO EXISTE
-TOCA MI CARA Y ESCUCHAME SENTADO...ESCUCHA MI DOLOR
-DOLOR?
-PREFIERO SENTIRME A SALVO ESCUCHANDO EL INDICIO DE UN SONIDO
QUE ME HACE VIVIR
-TE REFIERES AL TERRIBLE SONIDO TAN VACIO DE LA BRISA O A LOS MOMENTOS EN QUE LAS
SOMBRAS DESPIERTAN
-AL SILENCIO FINAL...AL SILENCIO DEL DOLOR
- SI ESTAS EN UN ERROR, ESTAS CONFUNDIDO

                          0:00          

          Piano                        Guitarra
 |re#-sib-sib-fa#-re#-sib-sib-fa#|x2    e|--------------------------------|
                                        B|4--------------0----------------|x1
                                        G|--------------------------------|
                          0:03
          Piano                        Guitarra
 |re#-sib-sib-fa#-re#-sib-sib-fa#|x2    e|--------------------------------|
                                        B|2-----------------2-4-----------|x1
                                        G|1-------------------------4-----|
                           0:05
          Piano                        Guitarra
 |re#-sib-sib-fa#-re#-sib-sib-fa#|x2    e|--------------------------------|
                                        B|---------------3-----1----------|x1
                                        G|3-------------------------2-----|
                           0:07
          Piano                        Guitarra
 |re#-sib-sib-fa#-re#-sib-sib-fa#|x2    e|--------------------------------|
                                        B|-------1------------------------|x1
                                        G|--------------------------------|
                           0:09

          Piano                       
 |re#-sib-sib-fa#-re#-sib-sib-fa#|x2  


Esto se repite 4 veces, es decir hasta el segundo 40


------------------------------------------------------------------------


La bateria entra en el segundo 0:11

W - 1 tiempo
H - 1/2 tiempo
Q - 1/4 tiempo
E - 1/8
S - 1/16th
T - 1/32nd
X - 1/64th


35- bass drum o bombo
38- acoustic snare
40- electric snare
47- low-mid tom
48- hi-mid tom


0:21

   S  S  S  S  E    E          H
----------------------------------------------|
-------------------38-------------------------|
----------------------------------------------| x2
--------47-47-48------------------------------|
--35-35-35-35-35---35-------------------------|
----------------------------------------------|


0:25

   S  S  S  S  E    E          H
----------------------------------------------|
-------------------40-------------------------|
----------------------------------------------| x2
--------47-47-48------------------------------|
--35-35-35-35-35---35-------------------------|
----------------------------------------------|

Se deja un tiempo y veulve al 0:31


0:31

   S  S  S  S  E    E          H
----------------------------------------------|
-------------------38-------------------------|
----------------------------------------------| x2
--------47-47-48------------------------------|
--35-35-35-35-35---35-------------------------|
----------------------------------------------|


0:35

   S  S  S  S  E    E          H
----------------------------------------------|
-------------------40-------------------------|
----------------------------------------------| x2
--------47-47-48------------------------------|
--35-35-35-35-35---35-------------------------|
----------------------------------------------|

Aqú acaba lo que es el intro
Luego le traigo lo demàs

Disfrutenlo
y califiquen 


ARRIVA CABEZAS DE HOJA                          

Tap to rate this tab
 
# A B C D E F G H I J K L M N O P Q R S T U V W X Y Z