Song name
# A B C D E F G H I J K L M N O P Q R S T U V W X Y Z

Austin Tv - Ana No Te Falle tab

 


 BAND : AUSTIN TV 
 SONG : ANA NO TE FALLE
 ALBUM : FONTANA BELLA
 TABBER : GARO nomemandesnimadre(at)hotmail(dot)com
 TUNNING : STANDARD




  INTRO                
  [0:38 - 1:04]         

E|---------------|
A|---------------|
D|---------------|
G|---11-10/6-8---|
B|-9-------------|
E|---------------|


 PRE-VERSE
 [1:05 - 1:21]

E|-----------------------------------|
A|-----------------------------------|
D|---11-13-16-15-13—11-13-16-15-13---|
G|-----------------------------------|
B|-----------------------------------|
E|-----------------------------------|


 VERSE
 [1:22 - 2:06]

E|----------------------------------|
A|----------------------------------|
D|----------------------------------|
G|-------11------11------8----4-----|
B|---9-9-----8-8-----6-6----4-------|
E|----------------------------------|


 SOLO (DISTORSION)
 
 [2:27 - 4:36] 

 LISTEN SONG FOR THE STRUMMING, THIS IS KIND OF TRICKY


  [2:27 - 2:34]
E|-------------|
A|-------------|
D|-6/-10/-8/-6-|
G|-X--X---X--X-|
B|-4/-8/--6/-4-|
E|-------------|


  [2:35 - 3:04]
E|--------------|
A|--------------|
D|-13/-12/-8/-6-|
G|-X----X--X--X-| X 4
B|-11/-10/-6/-4-|
E|--------------|


  [3:05 - 3:19]
E|----------------|
A|----------------|
D|-12/-13/-15/-17-|
G|-X----X--X---X--| X 2
B|-10/-11/-13/-15-|
E|----------------|



   [3:20 - 3:35]       
E|---------------------------------------------|
A|---------------------------------------------|
D|-20/-18/-17/---20/-18/-17---20/-18/-17/---15-|
G|-X----X--X-----X----X---X----X---X---X----X--| X 2
B|-18/-16/-15/---18/-16/-15---18/-16/-15/---13-|
E|---------------------------------------------|



  [3:36 - 3:46]
E|---------------------------------------|
A|---------------------------------------|
D|-13/-12/-8/-10/-12/-13/-15/-13/-12/-8/-|
G|-X----X--X--X---X---X---X---X---X---X--|
B|-11/-10/-6/-8/--10/-11/-13/-11/-10/-6/-|
E|---------------------------------------|



  [3:47 - 4:02]      
E|-----------------------------------------------------|
A|-----------------------------------------------------|
D|-10/-12/-13/-15/--13/-12/-15/-13/-12/-10/-12/-13/-12-|
G|-X---X---X----X---X---X---X---X---X---X----X--X---X--|
B|-8/-10/-11/--13/--11/-10/-13/-11/-10/-8/--10/-11/-10-|
E|-----------------------------------------------------|


  [4:03 - 4:20]
E|------------------------------------------|
A|------------------------------------------|
D|-8/-10/-12/--13/--15/-13/-12/-13/--15/-17-|
G|-X--X---X----X----X---X---X---X----X---X--|
B|-6/-8/--10/--11/--13/-11/-10/-11/--13/-15-|
E|------------------------------------------|



  [4:21 - 4:36]
E|---------------------------------------------|
A|---------------------------------------------|
D|-20/-18/-17/---20/-18/-17---20/-18/-17/---15-|
G|-X----X--X-----X----X---X----X---X---X----X--| X 2
B|-18/-16/-15/---18/-16/-15---18/-16/-15/---13-|
E|---------------------------------------------|


 OUTRO
 [4:37 - 5:05]

E|----------------------------------|
A|----------------------------------|
D|----------------------------------|
G|-------11------11------8----4-----|
B|---9-9-----8-8-----6-6----4-------|
E|----------------------------------|






Tap to rate this tab
# A B C D E F G H I J K L M N O P Q R S T U V W X Y Z