Song name
# A B C D E F G H I J K L M N O P Q R S T U V W X Y Z

Austin Tv - Ella No Me Conoce tab

AUSTIN TV - ELLA NO ME CONOCE

Esta tab la tenia guardada asi que nose
quien la haiga publicado pero disfrutenla. (:
Luis K!

parte 1

guitarra 1 (0:00)

E--------------------------------------------------------------|
B--------------------------------------------------------------|
G--------------------------------------------------------------|
D-------5---5-----5---5/-4-----4---4-----4---4-----------------|
A---2-2---2---2-2---2------2-2---2---2-2---2---0---------------|
E--------------------------------------------------------------|

E--------------------------------------------------------------|
B--------------------------------------------------------------|
G--------------------------------------------------------------|
D--------------------------------------------------------------|
A--------------------------------------------------------------|
E---2-22-22-22-22-222-3-33-33-33-33-333------------------------|


guitarra 2 (0:07)

E-----17-----------17---------17-------------------------------|
B-----15-15------------15---------15---------------------------|
G--------------------------------------------------------------|
D--------------------------------------------------------------|
A--------------------------------------------------------------|
E--------------------------------------------------------------|


guitarra 3 (0:30)

E--------10---10------------10---10--------10---10-------------|
B------8----8-------------8----8---------8----8----------------|
G----9------------------9--------------9-----------------------|
D--------------------------------------------------------------|
A--------------------------------------------------------------|
E--------------------------------------------------------------|

_____________________________________________________________
Parte  2


guitarra 1 (1:15) durante el sampler hasta (2:59)

esta parte k es como el intro solo se toca una vez (1:15)(1:30)
E--------------------------------------------------------------|
B--------------------------------------------------------------|
G--------------------------------------------------------------|
D-------5---5-----5---5/-4-----4---4-----4---4-----------------|
A---2-2---2---2-2---2------2-2---2---2-2---2---0---------------|
E--------------------------------------------------------------|


E--------------------------------------------------------------|
B--------------------------------------------------------------|
G--------------------------------------------------------------|
D--------------------------------------------------------------|
A--------------------------------------------------------------|
E---2-22-22-22-22-222-3-33-33-33-33-333------------------------|

(1:30) (2:58)
E--------------------------------------------------------------|
B--------------------------------------------------------------|
G--------------------------------------------------------------|
D--------------------------------------------------------------|
A--------------------------------------------------------------|
E-----44444444444444444444----------222222222222222222222------|

guitarra 2  (1:31) aquí metan un delay
 (1:31)                          (1:50)
E--------------------------------------------------------------|
B---10-8-8-7-8-7/5-5-7-------10-8-8-7-8-7/5-5-7----------------|
G--------------------------------------------------------------|
D--------------------------------------------------------------|
A--------------------------------------------------------------|
E--------------------------------------------------------------|
        (2:06)                    (2:13)
E--------------------------------------------------------------|
B-----10-8-7-7-5-7-5-7-----10-8-7-7-5-7-10-8-------------------|
G--------------------------------------------9-7---------------|
D--------------------------------------------------------------|
A--------------------------------------------------------------|
E--------------------------------------------------------------|
       (2:20)                       (2:27)
E--------------------------------------------5-3---------------|
B-----10-8-7-7-5-7-5-7----------12-8-8-7-5-7-----5-3-----------|
G--------------------------------------------------------------|
D--------------------------------------------------------------|
A--------------------------------------------------------------|
E--------------------------------------------------------------|
                              (2:43)       (2:50)
E---------5-3---------------------------------------------------|
B-----5-7-----5-3---------------5--3----------10---8-----10-8---|
G-----------------------------------------------------9-------9-|
D---------------------------------------------------------------|
A---------------------------------------------------------------|
E---------------------------------------------------------------|

guitarra 3
(1:30)

E------------10----10--------------10---10---------------------|
B----------8-----8---------------8----8------------------------|
G--------9---------------------9-------------------------------|
D--------------------------------------------------------------|
A--------------------------------------------------------------|
E--------------------------------------------------------------|

_______________________________________________________________
Parte 3

guitarra 1
(2:58) hasta que termina la canción

E--------------------------------------------------------------|
B--------------------------------------------------------------|
G--------------------------------------------------------------|
D-------5---5-----5---5/-4-----4---4-----4---4-----------------|
A---2-2---2---2-2---2------2-2---2---2-2---2---0---------------|
E--------------------------------------------------------------|

E--------------------------------------------------------------|
B--------------------------------------------------------------|
G--------------------------------------------------------------|
D--------------------------------------------------------------|
A--------------------------------------------------------------|
E---2-22-22-22-22-222-3-33-33-33-33-333------------------------|

guitarra 2
(2:57) hasta (4:18)            (4:26)
E------17-------------------------17---------------------------|
B---------15-------------------------15--14-15-----------------|
G--------------------------------------------------------------|
D--------------------------------------------------------------|
A--------------------------------------------------------------|
E--------------------------------------------------------------|

guitarra 3
(3:05) hasta                           (4:11)
E----------10---10--------10---10---------10--------------------|
B--------8----8---------8----8-------------8--------------------|
G------9--------------9-----------------------------------------|
D---------------------------------------------------------------|
A---------------------------------------------------------------|
E---------------------------------------------------------------|
Tap to rate this tab
 
# A B C D E F G H I J K L M N O P Q R S T U V W X Y Z