Song name
# A B C D E F G H I J K L M N O P Q R S T U V W X Y Z

Austin Tv - Flores Sobre Las Piedras tab

--------------------------------------------------------------------------
| Austin tv - Flores sobre las piedras
--------------------------------------------------------------------------
| NOTA: Esta tablatura no es la correcta de la canción, es una
| adaptación para tocarla en una sola guitarra.
--------------------------------------------------------------------------
| El tiempo de casi toda la canción esta en 3/4
--------------------------------------------------------------------------

Intro: Inicia minuto 0:00 - Efectos: Chorus + Delay (apenas notable)

E|-------------------------------------------------------|
B|----------------------------------7--------------------|
G|------------------------------------6------------------| x4
D|----------------4-~-~-3-~-~-----------6----------------|
A|----6-~-~-------------------4-~-~-------6-~-~-~-~-~----|
E|----------7-~-~----------------------------------------|

--------------------------------------------------------------------------

Verso 1 y 2: Inicia minuto 0:43
--------------------------------------------------------------------------
Cada acorde se toca 2 veces
El bloque completo tambien se repite 2 veces

               D#m              C               B              A#m
E|----X-X-X-X---X-~-~-X-X-X-X---4-~-~-X-X-X-X---2-~-~-X-X-X-X---1-~-~----|
B|----X-X-X-X---7-~-~-X-X-X-X---6-~-~-X-X-X-X---4-~-~-X-X-X-X---2-~-~----|
G|----X-X-X-X---8-~-~-X-X-X-X---6-~-~-X-X-X-X---4-~-~-X-X-X-X---3-~-~----|
D|----X-X-X-X---8-~-~-X-X-X-X---6-~-~-X-X-X-X---4-~-~-X-X-X-X---3-~-~----|
A|----X-X-X-X---6-~-~-X-X-X-X---4-~-~-X-X-X-X---2-~-~-X-X-X-X---1-~-~----|
E|----X-X-X-X---X-~-~-X-X-X-X---X-~-~-X-X-X-X---X-~-~-X-X-X-X---X-~-~----|

---------------------------------------------------------------------------

Variante intro: Inicia minuto 1:10
---------------------------------------------------------------------------

E|-----------------------------------------------------|
B|-----------------------------------------------------|
G|-----------------------------------------------------| x2
D|----------------4-~-~-3-~-~--------------------------|
A|----6-~-~-------------------4-~-~-~-~-6-~-~-~-~-~----|
E|----------7-~-~--------------------------------------|

---------------------------------------------------------------------------

Verso 3 y 4: Inicia minuto 1:32 - 1:59
---------------------------------------------------------------------------

E|--------------------------------------------|
B|--------------------------------------------|
G|---11------10-----13------11------10--------|
D|---11-x13--10-x3--13-x16--11-x16--10-x16----|
A|----9-------8-----11-------9-------8--------|
E|--------------------------------------------|

---------------------------------------------------------------------------

Puente 1 (Disco rayado): Inicia minuto 2:00
---------------------------------------------------------------------------
En el último acorde, las primeras 8 repeticiones se tocan en tercios
y la 9 vez se deja sonar

E|--------------------------------------------|
B|--------------------------------------------|
G|---11------11------11--10-~-~--11-----------|
D|---11-x4---11-x4---11--10-~-~---9-x9--------|
A|----9-------9-------9---8-~-~---9-----------|
E|--------------------------------------------|

---------------------------------------------------------------------------

Intermedio: Inicia minuto 2:16 con teclado
La guitarra entra al minuto 2:21 - Efectos: Flanger
---------------------------------------------------------------------------

E|--------------------------------------------|
B|--------------------------------------------|
G|-----------------------------------------3--|
D|------6--4--3--4-----x3------6--4--3--4-----| x3
A|---6--------------6-------6-----------------|
E|--------------------------------------------|

E|-------------------------|
B|-------------------------|
G|-------------------------|
D|------6--4--3--4-----x3--|
A|---6--------------6------|
E|-------------------------|

E|--------------------------------------------|
B|--------------------------------------------|
G|------------------3-~-~---------------------|
D|------6--4--3--4--------4-~-~---------------|
A|---6--------------------------4-~--~-6-~-~--|
E|--------------------------------------------|

---------------------------------------------------------------------------

Puente 2: Inicia minuto 2:50 - Efectos: Chorus + Delay (apenas notable)
---------------------------------------------------------------------------

E|-----------------------------------------------------|
B|---12-~-~-~-~-11-~-~--9--11--12--11----14\9--7--9----|
G|------------------------------------11---------------|
D|-----------------------------------------------------|
A|-----------------------------------------------------|
E|-----------------------------------------------------|

---------------------------------------------------------------------------

Verso 4 y 5: Inicia minuto 3:08
---------------------------------------------------------------------------

E|-----------------------------------|
B|-----------------------------------|
G|----10-11---11-11-11-10---13-------|
D|----10-11---11-11-11-10---13-------| x4
A|-----8--9----9--9--9--8---11-------|
E|-----------------------------------|

E|---------------------------------------|
B|---------------------------------------|
G|-----X-13---X-13---X-13---X-13---X-13--|
D|-----X-13---X-13---X-13---X-13---X-13--|
A|-----X-11---X-11---X-11---X-11---X-11--|
E|---------------------------------------|

E|-----------------------------------|
B|-----------------------------------|
G|----10-11---11-11-11-10---13-------|
D|----10-11---11-11-11-10---13-------| x2
A|-----8--9----9--9--9--8---11-------|
E|-----------------------------------|

E|---------------------------------------|
B|---------------------------------------|
G|-----X-13---X-13---X-13---X-13---X-13--|
D|-----X-13---X-13---X-13---X-13---X-13--|
A|-----X-11---X-11---X-11---X-11---X-11--|
E|---------------------------------------|

---------------------------------------------------------------------------

Outro: Inicia minuto 3:44 - Efectos: Distorcion
---------------------------------------------------------------------------

E|---------------------------------------------------|
B|---------------------------------------------------|
G|-----8-8-8-8-8-8----------------4-----4-4-4-4-4-4--|
D|-----8-8-8-8-8-8-----6-6-6-6-6--4-----4-4-4-4-4-4--|
A|-----6-6-6-6-6-6-----6-6-6-6-6--2-----2-2-2-2-2-2--|
E|---------------------4-4-4-4-4---------------------|

E|--------------------|
B|--------------------|
G|-----6-6-6-6-6--8---|
D|-----6-6-6-6-6--8---| x2
A|-----4-4-4-4-4--6---|
E|--------------------|

E|---------------------------------------------------|
B|---------------------------------------------------|
G|-----8-8-8-8-8-8----------------4-----4-4-4-4-4-4--|
D|-----8-8-8-8-8-8-----6-6-6-6-6--4-----4-4-4-4-4-4--|
A|-----6-6-6-6-6-6-----6-6-6-6-6--2-----2-2-2-2-2-2--|
E|---------------------4-4-4-4-4---------------------|

E|--------------------|
B|--------------------|
G|-----6-6-6-6-6------|
D|-----6-6-6-6-6------|
A|-----4-4-4-4-4------|
E|--------------------|
Tap to rate this tab
# A B C D E F G H I J K L M N O P Q R S T U V W X Y Z